Switchfoot - Loser Chords & Tabs

 

Loser Chords & Tabs

Switchfoot Chords & Tabs

Version: 1 Type: Tab 0 ratings
1 star 2 stars 3 stars 4 stars 5 stars
comments

Loser Tab

                              SWITCHFOOT
                                LOSER


STANDARD TUNING
EADGBe

------------------------------|
----9br9----------9br9--------|
----9br9----------9br9--------|
------------------------------|x3
-11-------99--11------77------|
--0-------77---9------55------|

------------------------------|
-----9br9---------------------|
-----9br9---------------------|
---------------66666666-------|
-11--------99--66666666-------|
--0--------77--44444444-------|
[ Tab from: http://www.guitartabs.cc/tabs/s/switchfoot/loser_tab.html ]
chorus
-----------------------------------------------------|
----------------------------------9b10r9-------------|
------13b14r13---------------------------------------|
-----------------------------------------------------|
-11-------------11-9-9-x-x--11-----------11-7-7-x-x--|
--0--------------0-7-7-x-x---9------------9-5-5-x-x--|


-----------------------------------------------------|
----------------------------------9b10r9-------------|
------13b14r13---------------------------------------|
-----------------------------------------------------|
-11-------------11-9-9-x-x--11-----------11-9-9-8----|
--0--------------0-7-7-x-x---9------------9-7-7-6----|

thats it
peace
Comments