Switchfoot - Learning To Breathe Chords & Tabs

 

Learning To Breathe Chords & Tabs

Switchfoot Chords & Tabs

Version: 1 Type: Tab 1 rating
1 star 2 stars 3 stars 4 stars 5 stars
comments

Learning To Breathe Tab

Learning To Breathe 
Switchfoot
Album: Learning to Breathe

Tabbed by Kathryn Pickard

intro and the first verse
[ Tab from: http://www.guitartabs.cc/tabs/s/switchfoot/learning_to_breathe_tab.html ]
---3--3--3--3------3--3--3--3----3--3--3--3--3-3-3---3-3----------
---3--3--3--3------3--3--3--3----3--3--3--3--3-3-3---3-3----------
-------------------2--2--2--2-------------------------------------
---------------------------------2--2--2--2--2-2-2---2-2----------
---2--2--2--2--------------------3--3--3--3--2-2-2---3-3----------
---3--3--3--3-----------------------------------------------------

The next part slows down a little the chords are

---0-0-0--0-0-0--0-0-0--0-0-0---
---3-3-3--3-3-3--3-3-3--3-3-3---
---2-2-2--0-0-0--0-0-0--0-0-0---
---0-0-0--0-0-0--4-4-4--0-0-0---
---0-0-0--0-0-0--0-0-0--0-0-0---
---3-3-3--3-3-3--3-3-3--3-3-3---

*Note use your thumb for the Low E on the third fret
Just listen to the song and use the cords here and you will
have it in no time 

                                  Grace and Peace
                                     KEP                
                  
Comments