Switchfoot - Home Chords & Tabs

 

Home Chords & Tabs

Switchfoot Chords & Tabs

Version: 1 Type: Tab 0 ratings
1 star 2 stars 3 stars 4 stars 5 stars
comments

Home Tab

/=Slide

e|------------------------------------------|
B|------------------------------------------|
G|-------2-0---------0---------0------------|
D|-----0---------0-7---------9----------0---|
A|-------------------------7----------9---0-|
E|---3-------3/7-------7/8-------8/10-------|
[ Tab from: http://www.guitartabs.cc/tabs/s/switchfoot/home_tab.html ]
And then on the second time play:

e|---------------------------------------------|
B|---------------------------------------------|
G|-------2-0---------0---------0---------------|
D|-----0---------0-7---------9-----------0-0---|
A|-------------------------7----------9--9/2---|
E|---3-------3/7-------7/8-------8/10---10/3---|
Comments