Switchfoot - Happy Is A Yuppie Word Chords & Tabs

 

Happy Is A Yuppie Word Chords & Tabs

Switchfoot Chords & Tabs

Version: 1 Type: Bass Tab 0 ratings
1 star 2 stars 3 stars 4 stars 5 stars
comments

Happy Is A Yuppie Word Bass Tab

Switchfoot ~ Happy Is A Yuppie Word
From the album Nothing Is Sound
Bass tab
Tabbed by Switchchick0610
SWITCHFOOT ROCKS!!!!!!
 
Tuning ~ DADG
 
No Bass for Intro but you can play it if you want
 
Intro ~
G|------------------|
D|------------------|
A|--000-------------|  x3
D|-------000000000--|
 
Verse 
G|----------------------------------------|
D|----------------------------------------|
A|--000------------------3333-------------|  x6
D|-------000000000--555--------333333333--|
 
Pre-Chorus 
G|-------------------|
D|-------------------| x1
A|-------------------|
D|--2>--33333--5555--|
 
Chorus
G|------------------------|--------|------------------------|
D|------------------------|--------|------------------------|
A|--0>--55544540----------|--------|--0>--55544540----------|
D|----------------5>--0>--|--33-5--|----------------5>--0>--|
 
*Intro (if you want or rest)* x2
 
Verse 2
G|-----------|---------------|
D|-----------|---------------|
A|--00-3-----|-------3333----| x2
D|--------0--|--555-------3--|
 
G|-------------|---------------|-----------|------------------------| 
D|--------16/--|---------------|-----------|------------------------|
A|--00-3-------|-------3333----|--00-3-----|-------3333-------------|
D|-------------|--555-------3--|--------0--|--555--------333333333--|
 
*Pre-Chorus* x1
 
*Chorus* x2 
 
Bridge
G|--------------|    |-------------------------|-------------------|
D|--------------| x3 |--14/-12-10--------------|-------------------| 
A|--10--8-------|    |-------------10--8-------|-------------------|
D|---------10~--|    |--------------------10~--|---10...-----------|
 
*Chorus* x1
then...
 
Fill
G|-------------|
D|-------------|
A|--5-3-0--555-| x1
D|-------------|
 
*Chorus* x1
 
End
G|-----------|
D|-----------|
A|--00-3-----| x4
D|--------0--|
 
 
Tablature
> play the note 8 times
... play repeatedly until they dont anymore on the song
/ slide
~ ring out 
 
There thats it... I hope you enjoy it.. .I LOVE this whole CD!
Any corrections PLEASE Tell me! I'll try my best to fix it!
[ Tab from: http://www.guitartabs.cc/tabs/s/switchfoot/happy_is_a_yuppie_word_btab.html ]
Comments