Switchfoot - Dare You To Move Chords & Tabs

 

Dare You To Move Chords & Tabs

Switchfoot Chords & Tabs

Version: 8 Type: Tab 0 ratings
1 star 2 stars 3 stars 4 stars 5 stars
comments

Dare You To Move Tab

Song: Dare you to move
Artist:Switchfoot
tabbed by: bob

(this is just constant strumming almost the enire song)

 intro/verse                                    X16
                                                          \/
e|-7-7-7--0-0-0--0-0-0--0-0-0-0--0-|
b|-0-0-0--0-0-0--9-9-9--0-0-0-0--0-|
g|-9-9-9--9-9-9--9-9-9--9-9-9-9--9-|
d|-7-7-7--7-7-7--7-7-7--7-7-7-7--7-|    X4
a|-0-0-0--0-0-0--0-0-0--0-0-0-0--7-|
e|-0-0-0--0-0-0--0-0-0--0-0-0-0--0-|

this is where he says "everyone's here" twice
  X16               X16
    \/                    \/
e|-0--------------0--|
b|-0--------------0--|
g|-6--------------9--|
d|-7--------------9--|
a|-7--------------0--|
e|-5--------------0--|

then it goes back to the first part when he says "watching" (play it twice)

When he says "what happens next", start these chords.
  X16         X16
     \/              \/
e|-0----------0--|
b|-0----------0--|
g|-4----------8--|
d|-5----------9--|
a|-5----------9--|
e|-3----------7--|
[ Tab from: http://www.guitartabs.cc/tabs/s/switchfoot/dare_you_to_move_tab_ver_8.html ]
chorus:     (everything else is X16)
                                  X12  X4                                                
       X4
                                    \/      \/                                           
                \/
e|---0---------0---------0----0---0----------0---------0------------------0--|
b|---0---------0---------0----0---0----------0---------0------------------0--|
g|---9---------8---------9----8---9----------8---------6------------------8--|
d|---9---------9---------9----9---9----------9---------7------------------9--|
a|---7---------9---------0----9---7----------9---------7------------------9--|
e|---0---------7---------0----0---0----------7---------5------------------7--|
 ..move.....move.......lift......move.....move....happened........happened....

when he says "before" go right into the intro/verse part again, but only play it 2X.
then the "everyone's here" part.
then back into the intro/verse part twice
Then you play the chorus again with the last two chords repeated over again and both 
16X

then this:
    X16           X16
      \/                \/
e|--0------------0--|
b|--0------------0--|
g|--9------------x--|
d|--9------------7--|     X3
a|--7------------7--|
e|--0------------5--|
Maybe........tell
maybe........fell
where.........yourself

then this: (switch on the gain after the first two chords)
          X1                   X1                                  X16
           \/                      \/                         /        /        \        
\
e|------0----------------0------------------0-----0-----0------0--|
b|------0----------------0------------------0-----0-----0------0--|
g|------x----------------0------------------9-----8-----9------8--|
d|------4----------------7------------------9-----9-----9------9--|
a|------4----------------7------------------7-----9-----0------9--|
e|------2----------------5------------------0-----7-----0------0--|


then go throught the entire chorus again with the gain on and then end on an E.

Well, that's it. Good luck
Comments