Switchfoot - Dare You To Move Chords & Tabs

 

Dare You To Move Chords & Tabs

Switchfoot Chords & Tabs

Version: 5 Type: Tab 0 ratings
1 star 2 stars 3 stars 4 stars 5 stars
comments

Dare You To Move Tab

   
-------------------------------------------------------------------------------
			     DARE YOU TO MOVE - Switchfoot
-------------------------------------------------------------------------------
Tabbed by: Jeremy (guitardude98)

Tuning: Standard (ebgdae)

This is the version from the album The Beautiful Letdown
I'm only tabbing the electric guitar parts for this song.
It should be accurate.

Play this quietly before the first chorus
  "What happens next..........................................what happens next"
e|---------------------------------------------------------------------------|
B|---------------------------------------------------------------------------|
G|---------------------------------------------------------------------------|
D|----------------5------------------------------9---------------------------|
A|----------------5------------------------------9---------------------------|
E|----------------3------------------------------7---------------------------|

Chorus
"I dare you to move...I dare you to move...I dare you to lift yourself up..."
e|---------------------------------------------------------------------------|
B|---------------------------------------------------------------------------|
G|---------------9-----------------------------------------------------------|
D|---------------9------------------9-------------------7--------------------|
A|---------------7------------------9-------------------7--------------------|
E|---------------0------------------7-------------------5--------------------|

"I dare you to move...I dare you to move...like today never happened"
e|---------------------------------------------------------------------------|
B|---------------------------------------------------------------------------|
G|---------------9-----------------------------------------------------------|
D|----------9----9------------------9-----------------------7----------------|
A|----------9----7------------------9-----------------------7----------------|
E|----------7----0------------------7-----------------------5----------------|

"today never happened before"
e|---------------------------------------------------------------------------|
B|---------------------------------------------------------------------------|
G|---------------------------------------------------------------------------|
D|--------------9------------------------------------------------------------|
A|--------------9------------------------------------------------------------|
E|--------------7------------------------------------------------------------|

2nd verse (this is where the guitar gets awesome)
"welcome to the fallout"(and after "welcome to resistance")
e|---------------------------------------------------------------------------|
B|---------------------------------------------------------------------------|
G|---------------------------------------------------------------------------|
D|-------------------9/11-11-11-9/11-11---11-11-9-9-------------------------|
A|-------------------9/11-11-11-9/11-11---11-11-9-9-------------------------|
E|-------------------7/9--9--9---7/9--9----9--9--7-7-------------------------|

"the tension is here"               "the tension is here"
e|---------------------------------------------------------------------------|
B|---------------------------------------------------------------------------|
G|---------------------------------------------------------------------------|
D|-------------------2/4-4-4-2/4-4-4--4-4--6-6--7-7-7-7--7-7-7-7--7-7-7-----|
A|-------------------2/4-4-4-2/4-4-4--4-4--6-6--7-7-7-7--7-7-7-7--7-7-7-----|
E|-------------------0/2-2-2-0/2-2-2--2-2--4-4--5-5-5-5--5-5-5-5--5-5-5-----|
[ Tab from: http://www.guitartabs.cc/tabs/s/switchfoot/dare_you_to_move_tab_ver_5.html ]
"between who you are and who you should be"
e|---------------------------------------------------------------------------|
B|---------------------------------------------------------------------------|
G|---------------------------------------------------------------------------|
D|-------------------9/11-11-11-9/11-11---11-11-9-9-------------------------|
A|-------------------9/11-11-11-9/11-11---11-11-9-9-------------------------|
E|-------------------7/9--9--9---7/9--9----9--9--7-7-------------------------|

"between how it is and how it should be"
e|---------------------------------------------------------------------------|
B|---------------------------------------------------------------------------|
G|---------------------------------------------------------------------------|
D|-------------------2/4-4-4-2/4-4-4--4-4--6-6--7-7-7-7--7-7-7-7--7-7-7-----|
A|-------------------2/4-4-4-2/4-4-4--4-4--6-6--7-7-7-7--7-7-7-7--7-7-7-----|
E|-------------------0/2-2-2-0/2-2-2--2-2--4-4--5-5-5-5--5-5-5-5--5-5-5-----|

Play chorus again

Bridge
Play this twice
"maybe redemption has stories to tell"
e|---------------------------------------------------------------------------|
B|---------------------------------------------------------------------------|
G|---------9-9-9-9-9-9-9-9---------------------------------------------------|
D|---------9-9-9-9-9-9-9-9-------7-7-7-7-7-7-7-7-----------------------------|
A|---------7-7-7-7-7-7-7-7-------7-7-7-7-7-7-7-7-----------------------------|
E|-------------------------------5-5-5-5-5-5-5-5-----------------------------|

"where can you run to escape from yourself........................where you gonna go"
e|---------------------------------------------------------------------------|
B|---------------------------------------------------------------------------|
G|---------------------------------------------------------------------------|
D|--------11-11-11-11-11-11-11-11---7-7-7-7-7-7-7-7---------------9----------|
A|--------11-11-11-11-11-11-11-11---7-7-7-7-7-7-7-7---------------9----------|
E|--------9--9--9--9--9--9--9--9----5-5-5-5-5-5-5-5---------------7----------|

Solo			         (a stretch, but you can do it!)
e|---0-0-0-0-0--0-0-0-0-0--0-0-0-0----4-4-4-4-4--4-4-4-4-4--4-4-4-4---------|
B|---5-5-5-5-5--5-5-5-5-5--5-5-5-5----9-9-9-9-9--9-9-9-9-9--9-9-9-9---------|
G|---------------------------------------------------------------------------|
D|---------------------------------------------------------------------------|
A|---------------------------------------------------------------------------|
E|---------------------------------------------------------------------------|

e|-0-0-0-0-0--0-0-0-0-0--0-0-0-0--11-11-11-11-11--11-11-11-11-11--11-11-11-11|
B|-5-5-5-5-5--5-5-5-5-5--5-5-5-5--11-11-11-11-11--11-11-11-11-11--11-11-11-11|
G|---------------------------------------------------------------------------|
D|---------------------------------------------------------------------------|
A|---------------------------------------------------------------------------|
E|---------------------------------------------------------------------------|

Last Chorus
e|---------------------------------------------------------------------------|
B|---------------------------------------------------------------------------|
G|---9-------------------------9------------------------------------------9--|
D|---9-x12--9------7------9-9--9-x12--9------7------11------7------9-9-9--9--|
A|---7------9-x12--7-x22--9-9--7------9-x12--7-x12--11-x12--7-x12--9-9-9--7--|
E|---0------7------5------7-7--0------7------5------9-------5------7-7-7-0--|

| /  slide up
| \  slide down
| h  hammer-on
| p  pull-off
| ~  vibrato
| +  harmonic
| x  Mute note
===============================================================================
Comments