Switchfoot - Dare You To Move Chords & Tabs

 

Dare You To Move Chords & Tabs

Switchfoot Chords & Tabs

Version: 1 Type: Tab 0 ratings
1 star 2 stars 3 stars 4 stars 5 stars
comments

Dare You To Move Tab

#----------------------------------PLEASE NOTE---------------------------------#
#This file is the author's own work and represents their interpretation of the #
#song. You may only use this file for private study, scholarship, or research. #
#------------------------------------------------------------------------------#

Artist-Switchfoot
Title-Dare you to move
Album-Beitiful Letdown


Intro
[ Tab from: http://www.guitartabs.cc/tabs/s/switchfoot/dare_you_to_move_tab.html ]
E|-000000---00-0---777777---000000--|
A|-777777---77-7---777777---777777--|
D|-999999---99-9---999999---999999--|
G|-999999---99-9---999999---999999--|
B|----------99----------------------|
e|----------------------------------|

Chorus

E|----------------------------------|
A|-7--2--0--2-----------------------|
D|-9--4--2--4-----------------------|
G|-9--4--2--4-----------------------|
B|----------------------------------|
e|----------------------------------|

Little part after 1rst chorus

E|----------------------------------|
A|-7/9-77---7/9-77----77--77--------|
D|-7/9-99---7/9-99----99--77--------|
G|-----99-------99----99------------|
B|----------------------------------|
e|----------------------------------|




questions or comments email me _matpage16_@rock.com
Comments