Switchfoot - Daisy Chords & Tabs

 

Daisy Chords & Tabs

Switchfoot Chords & Tabs

Version: 1 Type: Tab 0 ratings
1 star 2 stars 3 stars 4 stars 5 stars
comments

Daisy Tab

   
Switchfoot - Daisy
Tabbed by: Miko Savady

**Drop-D tuning
**This is the version from Switchfoot live on 99x (because in the album version 

tuning, all the strings are dropped a further half step - Db,Ab,Db,Gb,Bb,eb. I 

personally like the live version better coz its more convenient. Enjoy!)


*Intro
e|--------------------------------------------------------------------------------|
B|--------------------------------------------------------------------------------|
G|---------9/11-1111-9x11-11------9/11-1111-9/11-11-------------------------------|
D|-0---0-0-x----x-x--x----0---0-0-x----x-x--x----0--------------------------------|
A|-0---0-0-7/9--9-9--7/9--0---0-0-7/9--9-9--7/9--0--------------------------------|
D|-0---0-0-0----0-0--0----0---0-0-0----0-0--0----0--------------------------------|

e|--------------------------------------------------------------------------------|
B|--------------------------------------------------------------------------------|
G|-----9/11-1111-9x11-11------9/11-1111-9/11-11-----------------------------------|
D|-0-0-x----x-x--x----0---0-0-x----x-x--x----0------------------------------------|
A|-0-0-7/9--9-9--7/9--0---0-0-7/9--9-9--7/9--0------------------------------------|
D|-0-0-0----0-0--0----0---0-0-0----0-0--0----0------------------------------------|

*verse 1
e|--x-------------------------x---------------------x-----------------------------|
B|--3-------------------------3---------------------3-----------------------------|
G|--2-------------------------1---------------------2-----------------------------|
D|--0-------------------------0---------------------x-----------------------------|
A|--0-------------------------0---------------------2-----------------------------|
D|--0-------------------------0---------------------0-----------------------------|
    Daisy, give yourself away   Look up at the rain   The beautiful display

e|--------------------x----------------------x------------------------------------|
B|--------------------3----------------------x------------------------------------|
G|--------------------0----------------------7------------------------------------|
D|--------------------x----------------------x------------------------------------|
A|--------------------5----------------------8------------------------------------|
D|--------------------5----------------------8------------------------------------|
    Of power and surrender   Giving us today   When she gives herself away

e|--------------------------------------------------------------------------------|
B|--------------------------------------------------------------------------------|
G|---------9/11-1111-9x11-11------9/11-1111-9/11-11-------------------------------|
D|-0---0-0-x----x-x--x----0---0-0-x----x-x--x----0--------------------------------|
A|-0---0-0-7/9--9-9--7/9--0---0-0-7/9--9-9--7/9--0--------------------------------|
D|-0---0-0-0----0-0--0----0---0-0-0----0-0--0----0--------------------------------|


e|--x-----------------------x-------------------------x---------------------------|
B|--3-----------------------3-------------------------3---------------------------|
G|--2-----------------------1-------------------------2---------------------------|
D|--0-----------------------0-------------------------x---------------------------|
A|--0-----------------------0-------------------------2---------------------------|
D|--0-----------------------0-------------------------0---------------------------|
    Rain, another rainy day   Comes up from the ocean   Give herself away

e|-------------------x------------------------------x-----------------------------|
B|-------------------3------------------------------x-----------------------------|
G|-------------------0------------------------------7-----------------------------|
D|-------------------x------------------------------x-----------------------------|
A|-------------------5------------------------------8-----------------------------|
D|-------------------5------------------------------8-----------------------------|
    She comes down easy   On rich and dead the same   When she gives herself away

e|--------------------------------------------------------------------------------|
B|--------------------------------------------------------------------------------|
G|---------9/11-1111-9x11-11------------------------------------------------------|
D|-0---0-0-x----x-x--x----0---0-0-0-----------------------------------------------|
A|-0---0-0-7/9--9-9--7/9--0---0-0-0-----------------------------------------------|
D|-0---0-0-0----0-0--0----0---0-0-0-----------------------------------------------|

*Chorus
e|-----------x-----------------x--------------x-----------------------------------|
B|-----------3-----------------3--------------x-----------------------------------|
G|-----------2-----------------0--------------3-----------------------------------|
D|-----------0-----------------x--------------x-----------------------------------|
A|-----------0-----------------5--------------5-----------------------------------|
D|-----------0-----------------5--------------5-----------------------------------|
    Let it go, Daisy let it go   Open up your fists
[ Tab from: http://www.guitartabs.cc/tabs/s/switchfoot/daisy_tab.html ]
e|--------------------x---------------------x-------------------------------------|
B|--------------------3---------------------x-------------------------------------|
G|--------------------2---------------------1-------------------------------------|
D|--------------------0---------------------0-------------------------------------|
A|--------------------x---------------------2-------------------------------------|
D|--------------------3---------------------2-------------------------------------|
    This fallen world   Doesn't hold your interest

e|--------------------------------------------------------------------------------|
B|----------------------------0---------------------------------------------------|
G|------------------------0-----0-0-----------------------------------------------|
D|----------------------2---2-------2---------------------------------------------|
A|--------------------0-----------------------------------------------------------|
D|--------------------------------------------------------------------------------|
    Doesn't hold your soul    Daisy let it go

e|--------------------------------------------------------------------------------|
B|--------------------------------------------------------------------------------|
G|---------9/11-1111-9x11-11------9/11-1111-9/11-11-------------------------------|
D|-0---0-0-x----x-x--x----0---0-0-x----x-x--x----0--------------------------------|
A|-0---0-0-7/9--9-9--7/9--0---0-0-7/9--9-9--7/9--0--------------------------------|
D|-0---0-0-0----0-0--0----0---0-0-0----0-0--0----0--------------------------------|

*Verse 2 - repeat verse 1 chords
Pain, give yourself a name
Call yourself contrition,
Avarice or blame
Giving isn't easy
And neither is the rain
When she gives herself away

Daisy, why another day
Why another sunrise
Who will take the blame
For our redemptive motion
And every rainy day
When he gives himself away

*Chorus
e|-----------x-----------------x--------------x-----------------------------------|
B|-----------3-----------------3--------------x-----------------------------------|
G|-----------2-----------------0--------------3-----------------------------------|
D|-----------0-----------------x--------------x-----------------------------------|
A|-----------0-----------------5--------------5-----------------------------------|
D|-----------0-----------------5--------------5-----------------------------------|
    Let it go, Daisy let it go   Open up your fists

e|--------------------x---------------------x-------------------------------------|
B|--------------------3---------------------x-------------------------------------|
G|--------------------2---------------------1-------------------------------------|
D|--------------------0---------------------0-------------------------------------|
A|--------------------x---------------------2-------------------------------------|
D|--------------------3---------------------2-------------------------------------|
    This fallen world   Doesn't hold your interest

e|--------------------------------------------------------------------------------|
B|----------------------------0---------------------------------------------------|
G|------------------------0-----0-0-----------------------------------------------|
D|----------------------2---2-------2---------------------------------------------|
A|--------------------0-----------------------------------------------------------|
D|--------------------------------------------------------------------------------|
    Doesn't hold your soul    Daisy let it go

e|---------------------------------------x----x----x----x----x--------------------|
B|---------------------------------------x----x----x----3----x--------------------|
G|---------9/11-1111-9x11-11-------------7----4----3----2----1--------------------|
D|-0---0-0-x----x-x--x----0--------------x----x----x----0----x--------------------|
A|-0---0-0-7/9--9-9--7/9--0--------------5----5----5----x----2--------------------|
D|-0---0-0-0----0-0--0----0--------------0----5----5----3----2--------------------|
                               Let it go...

e|--------------------------------------------------------------------------------|
B|---------0----------------------------------------------------------------------|
G|-----0-----0-0-------------------9/11-1111-9x11-11------9/11-1111-9/11-11-------|
D|---2---2-------2---------0---0-0-x----x-x--x----0---0-0-x----x-x--x----0--------|
A|-0-----------------------0---0-0-7/9--9-9--7/9--0---0-0-7/9--9-9--7/9--0--------|
D|-------------------------0---0-0-0----0-0--0----0---0-0-0----0-0--0----0--------|
           Daisy let it go

e|----------------------------------x-x-x-x-x-x-x-x-x-----------------------------|
B|----------------------------------x-x-x-x-x-x-x-x-x-----------------------------|
G|-----9/11-1111-9x11-11------------7-7-7-7-7-7-6-5-3-----------------------------|
D|-0-0-x----x-x--x----0---0--0--0---x-0-0-x-0-0-x-x-x-----------------------------|
A|-0-0-7/9--9-9--7/9--0---0--0--0---5-0-0-5-0-0-4-3-5-----------------------------|
D|-0-0-0----0-0--0----0---0--0--0---0-0-0-0-0-0-0-0-5-----------------------------|
                           Let it go

e|-----------x-x-x-x-x-x-x-x-x-----------x-x-x-x-x-x-x-x-x------------------------|
B|-----------x-x-x-x-x-x-x-x-x-----------x-x-x-x-x-x-x-x-x------------------------|
G|-----------7-7-7-7-7-7-6-5-3-----------7-7-7-7-7-7-6-5-3------------------------|
D|-----------x-0-0-x-0-0-x-x-x-----------x-0-0-x-0-0-x-x-x------------------------|
A|-----------5-0-0-5-0-0-4-3-5-----------5-0-0-5-0-0-4-3-5------------------------|
D|-----------0-0-0-0-0-0-0-0-5-----------0-0-0-0-0-0-0-0-5------------------------|
    Let it go                    Let it go

e|-----------x-x-x-x-x-x-x-x-x------------x---------------------------------------|
B|-----------x-x-x-x-x-x-x-x-x------------3---------------------------------------|
G|-----------7-7-7-7-7-7-6-5-3------------2---------------------------------------|
D|-----------x-0-0-x-0-0-x-x-x------------0---------------------------------------|
A|-----------5-0-0-5-0-0-4-3-5------------0---------------------------------------|
D|-----------0-0-0-0-0-0-0-0-5------------0---------------------------------------|
    Let it go                    Let it go
Comments