Switchfoot - Concrete Girl Chords & Tabs

 

Concrete Girl Chords & Tabs

Switchfoot Chords & Tabs

Version: 1 Type: Tab 0 ratings
1 star 2 stars 3 stars 4 stars 5 stars
comments

Concrete Girl Tab

                            SWITCHFOOT
                          CONCRETE GIRL


STANDARD TUNING
EADGBe


-----------------------------------------------------------------------|
------0h1-0----0h1----0h1-0-----0-1p0---------0h1-0----0h1-0----0h1-0--|
--------------------------------------2p0------------------------------|
-----------------------------------------------------------------------|
---3--------0----------------55------------3--------0------------------|
-------------------3---------33------------------------------3---------|
[ Tab from: http://www.guitartabs.cc/tabs/s/switchfoot/concrete_girl_tab.html ]
-----------------------------------------------------------------------|
------0h1-0----0h1----0h1-0-----0-1p0---------0h1-0----0h1-0----0h1-0--|
--------------------------------------2p0------------------------------|
-----------------------------------------------------------------------|
---3--------0----------------55------------3--------0------------------|
-------------------3---------33------------------------------3---------|

-------------------------------------------|
-------------------------------------------|
--99----------------99---------------------|
--99-99--77-1010----99-99-7777/10101010----|
--77-99--77-1010----77-99-7777/10101010----|
-----77--55--8-8-------77-5555/-8-8-8-8----|

thats most of the song
peace
Comments