Switchfoot - Chem6a Chords & Tabs

 

Chem6a Chords & Tabs

Switchfoot Chords & Tabs

Version: 1 Type: Tab 0 ratings
1 star 2 stars 3 stars 4 stars 5 stars
comments

Chem6a Tab

E |-------------------------------------------|
B |-------------------------------------------|
G |----4-2------4b-2------3b-2-------2h4p2----|
D |-----------------------------0-0---------5-|
A |---------0-0-------3-3---------------------|
E |3-3----------------------------------------|

E |-------------------------------------------|
B |----PM-------------------------------------|
G |----4-2------4b-2------3b-2-------3/5------|
D |-----------------------------0-------------|
A |---------0-0-------3-3---------------------|
E |3-3----------------------------------------|
[ Tab from: http://www.guitartabs.cc/tabs/s/switchfoot/chem6a_tab.html ]
Comments