Switchfoot - Bomb Chords & Tabs

 

Bomb Chords & Tabs

Switchfoot Chords & Tabs

Version: 2 Type: Bass Tab 0 ratings
1 star 2 stars 3 stars 4 stars 5 stars
comments

Bomb Bass Tab

"Bomb"
by Switchfoot
(c) 1997 Meadowgreen Music/Sugar Pete Songs/ASCAP
Toonman (bass4jesus@aol.com)


INTRO:
G-----5---------------3-7---8p7-5-------5-----------5-2---7---8---|
D-5h7---7-1---3-0-1-3---------------5h7---7-1---0h2-----2---------|

G-8-----\5-------------3---1---0-----------8-----\5---------------|
D-------------------------------------------------------0---------|

VERSE 1:                         (4x)
G-----5-----------------------------|
D-5h7---7-1-1-1-3-1-0-0-0-0---------|
A---------------------------3-3-----|
E-------------------------------0-0-|

CHORUS:                                            (2x)
G-----------------|-----5-----------------------------|-----5-----|
D-2---------------|-5h7---7-1-1-1-3-1-0-0-0-0---------|-5h7---7---|
A-----------------|---------------------------3-3-----|-----------|
E-----------------|-------------------------------0-0-|-----------|

                               (4x)
A-----5---7------\3-----3---------|
E-3-------------------------------|
[ Tab from: http://www.guitartabs.cc/tabs/s/switchfoot/bomb_btab_ver_2.html ]
VERSE 2:
G-----5---------------------------------------------------------------|
D-5h7---7-1-1-1-3-1-0-0-0-0-----------7-7-7-7-6-6-6-6-5-5-5-5-3-3-3-3-|
A---------------------------3-3---------------------------------------|
E-------------------------------0-0-----------------------------------|

  (Slap Bass Time!)                                               (2x)
G---5---------------7---5---0-2-0---5---------------7---5-2-1-0-1----|
D-------7---0-1-0-0-------2-------------7---0-1-0-0------------------|
A---------3-------------------------------3--------------------------|

CHORUS 2:                                          (4x)
G-----------------|-----5-----------------------------|-----5-----3---4---|
D-2---------------|-5h7---7-1-1-1-3-1-0-0-0-0---------|-5h7---------------|
A-----------------|---------------------------3-3-----|-------------------|
E-----------------|-------------------------------0-0-|-------------------|

(Repeat Verse 1)
(Repeat 2nd Half of Intro)
(Repeat Verse 2, getting progressively slower; This time play only 2x)
(Finish off with a nice long C)
Comments