Switchfoot - Ammunition Chords & Tabs

 

Ammunition Chords & Tabs

Switchfoot Chords & Tabs

Version: 6 Type: Tab 0 ratings
1 star 2 stars 3 stars 4 stars 5 stars
comments

Ammunition Tab

   
lyrics included. enjoy!

intro starts with drums and bass guitar then: guitar 1
e----------------------------------------------------------------->
B--------------------5-------------------------------------------->
G-4~~-----6\1~~----4--4-3~~---4-4-4-443-3-8~~-4-4-4-443-3-8~~----->
D----------------------------------------------------------------->
A-----------------------------2-2-2-221-1-6~~-2-2-2-221-1-6~~----->
E----------------------------------------------------------------->

guitar 2:
e------------------>
B------------------>
G-4-4-4-443-3-8~~-->
D------------------> repeat 4x
A-2-2-2-221-1-6~~-->
E-0-0-0-000-0-0~~-->

verse 1: guitar 1             guitar 2
e-555-5-3-3-2-2-555-5-3-3-2-2---------------------------------->
B-------------------------------------------------------------->
G-----------------------------4-4-4-443-3-8~~-4-4-4-443-3-8~~-->
D-777-7-5-5-4-4-777-7-5-5-4-4----------------------------------> repeat
A-----------------------------2-2-2-221-1-6~~-2-2-2-221-1-6~~-->
E-----------------------------0-0-0-000-0-0~~-0-0-0-000-0-0~~-->
blame it on what you've been through blame it on what your into blame it on
your religions blame it on politicians

chorus: guitar 3
e-------------------------->          e------------------------------->
B-------------5-5-555------>          B------------------------------->
G-4-66-4-6-2-24-4-444------> repeat   G-2222-4444-2222-4444-2222-4xxx->
D-4-66-4-6-2-22-2-222-4444-> 3x then: D-2222-4444-2222-4444-2222-4xxx->
A-2-44-2-4-0-0--------4444->          A-0000-2222-0000-2222-0000-2xxx->
E---------------------2222->          E------------------------------->
we've been blowing up we're the issue its our condition we've been blowing
up we're the issue our detonation we've been blowing up we're the issue
we're ammunition we're ammunition we're ammunition we are the fuse and
ammunition

guitar 2:
e------------------>
B------------------>
G-4-4-4-443-3-8~~-->
D------------------> repeat 2x
A-2-2-2-221-1-6~~-->
E-0-0-0-000-0-0~~-->
[ Tab from: http://www.guitartabs.cc/tabs/s/switchfoot/ammunition_tab_ver_6.html ]
verse 2: guitar 1             guitar 2
e-555-5-3-3-2-2-555-5-3-3-2-2---------------------------------->
B-------------------------------------------------------------->
G-----------------------------4-4-4-443-3-8~~-4-4-4-443-3-8~~-->
D-777-7-5-5-4-4-777-7-5-5-4-4----------------------------------> repeat
A-----------------------------2-2-2-221-1-6~~-2-2-2-221-1-6~~-->
E-----------------------------0-0-0-000-0-0~~-0-0-0-000-0-0~~-->
I have no generation show me my motivation one world one desperation one
hope and one salvation

repeat chorus

guitar 2:
e------------------>
B------------------>
G-4-4-4-443-3-8~~-->
D------------------> repeat 2x
A-2-2-2-221-1-6~~-->
E-0-0-0-000-0-0~~-->

bridge: guitar 2
e------------------------------------------------------------------------->
B------------------------------------------------------------------------->
G-----------4-4-4-443-3-8~~-----------4-4-4-443-3-8~~--------------------->
D-5555-7777-----------------5555-7777-----------------5555-7777-5555-7777->
A-5555-7777-2-2-2-221-1-6~~-5555-7777-2-2-2-221-1-6~~-5555-7777-5555-7777->
E-3333-5555-0-0-0-000-0-0~~-3333-5555-0-0-0-000-0-0~~-3333-5555-3333-5555->
look what a mess we've made of love look what a mess we've made, we've got
ourselves to blame

e------------------------------------------->
B------------------------------------------->
G-----------4-4-4-443-3-8~~-4-4-4-443-3-8~~->
D-5555-7777--------------------------------->
A-5555-7777-2-2-2-221-1-6~~-2-2-2-221-1-6~~->
E-3333-5555-0-0-0-000-0-0~~-0-0-0-000-0-0~~->
look what a bomb we've made of love

chorus 2 (3rd chorus): guitar 3
e-------------------------->          e------------------------------->
B-------------5-5-555------>          B------------------------------->
G-4-66-4-6-2-24-4-444------> repeat   G-2222-4444-2222-4444-2222-4xxx->
D-4-66-4-6-2-22-2-222-4444-> 3x then: D-2222-4444-2222-4444-2222-4xxx->
A-2-44-2-4-0-0--------4444->          A-0000-2222-0000-2222-0000-2xxx->
E---------------------2222->          E------------------------------->
we've been blowing up we're the issue its our condition we've been blowing
up we're the issue our detonation we've been blowing up we're the issue
we're ammunition we're ammunition we're ammunition we are the fuse and
ammunition

guitar 2:
e----------------------------------------------->
B----------------------------------------------->
G-4-4-4-443-3-8~~-2222-4444-2222-4444-2222-4xxx->
D-----------------2222-4444-2222-4444-2222-4xxx->
A-2-2-2-221-1-6~~-0000-2222-0000-2222-0000-2xxx->
E-0-0-0-000-0-0~~------------------------------->
                  we're ammunition we're ammunition we're ammunition we are
the fuse and ammunition

outro: guitar 2
e------------------>
B------------------>
G-4-4-4-443-3-8~~-->
D------------------> repeat 3x
A-2-2-2-221-1-6~~-->
E-0-0-0-000-0-0~~-->
ammunition
Comments