Switchfoot - Ammunition Chords & Tabs

 

Ammunition Chords & Tabs

Switchfoot Chords & Tabs

Version: 4 Type: Tab 0 ratings
1 star 2 stars 3 stars 4 stars 5 stars
comments

Ammunition Tab

Band- Switchfoot
Song- Ammunition

listen for timing

     Intro (played after drums and bass enter)
                        (clean)
         x1              x1                   x2     
  e[-------------][----------------][----------------------]
  b[-------------][----------------][----------------------]
  g[-------------][----------------][----------------------]
  D[-------------][----------------][----------------------]
  A[---2---2--0--][---2--2-2-2-2-0-][---2-2--2-2-2-2-0-5---]
  E[-------------][----------------][----------------------]
[ Tab from: http://www.guitartabs.cc/tabs/s/switchfoot/ammunition_tab_ver_4.html ]
   Main Riff  (distortion)          Verse 1 and 2  (clean)
  e[----------------------]   e[------------------------------------------------]
  b[----------------------]   b[---4-4-4---3-3-3---3-3-3---4-4-4---3-3-3---3-3--]
  g[----------------------]   g[---3-3-3---3-3-3---2-2-2---3-3-3---3-3-3---2-2--]
  D[---4-4--4-4-4-4-2-7---]   D[---1-1-1---0-0-0---0-0-0---1-1-1---0-0-0---0-0--]
  A[---2-2--2-2-2-2-0-5---]   A[------------------------------------------------]
  E[----------------------]   E[------------------------------------------------]

    Chorus (heavey distortion) x4
  e[------------------------------------------------]
  b[------------------------------------------------]
  g[------------------------------------------------]
  D[---9-9-9-9-9-9--7-7-7-7-7-7--12-12-12-12-12-12--]
  A[---9-9-9-9-9-9--7-7-7-7-7-7--12-12-12-12-12-12--]
  E[---7-7-7-7-7-7--5-5-5-5-5-5--10-10-10-10-10-10--]
    then    x1
  e[------------------------------------------------]
  b[------------------------------------------------]
  g[------------------------------------------------]
  D[---9-9-9-9-9-9--7-7-7-7-7-7--x-x-x-x-x-x--------]
  A[---9-9-9-9-9-9--7-7-7-7-7-7--x-x-x-x-x-x--------]
  E[---7-7-7-7-7-7--5-5-5-5-5-5--x-x-x-x-x-x--------]

    Verse 3/Bridge
  e[------------------------------]
  b[------------------------------]
  g[------------------------------]
  D[---9~~~~~~~~7~~~~~~~~12~~~~~~~]
  A[---9~~~~~~~~7~~~~~~~~12~~~~~~~]
  E[---7~~~~~~~~5~~~~~~~~10~~~~~~~]
Comments