Switchfoot - Ammunition Chords & Tabs

 

Ammunition Chords & Tabs

Switchfoot Chords & Tabs

Version: 3 Type: Tab 0 ratings
1 star 2 stars 3 stars 4 stars 5 stars
comments

Ammunition Tab

way beginning (with only drums)
[ Tab from: http://www.guitartabs.cc/tabs/s/switchfoot/ammunition_tab_ver_3.html ]
----------------------------------------------------------------|
----------------------------------------------------------------|
--8-------------8-----9-999----------------8-888----------------|
----9-8~~---------9-8---------9-9-999-8-88----------------------|
----------------------------------------------------------------|
----------------------------------------------------------------|


Then real music starts

----------------------------------------------------------------|
----------------------------------------------------------------|
---------------------8--8-8-8-----------------------------------|
---9--9-9-9--9-9-888-x--x-x-x-----------------------------------|
---x--x-x-x--x-x-xxx-6--6-6-6-----------------------------------|
---7--7-7-7--7-7-666--------------------------------------------|
Comments