Switchfoot - Ammunition Chords & Tabs

 

Ammunition Chords & Tabs

Switchfoot Chords & Tabs

Version: 1 Type: Tab 0 ratings
1 star 2 stars 3 stars 4 stars 5 stars
comments

Ammunition Tab

#----------------------------------PLEASE NOTE---------------------------------#
#This file is the author's own work and represents their interpretation of the #
#song. You may only use this file for private study, scholarship, or research. #
#------------------------------------------------------------------------------#

INTRO:

    -----------------------------------|
    -----------------------------------|
    ---4-4-4-4-4---3-3-3---8-8-8-------|
    ---x-x-x-x-x---x-x-x---x-x-x-------|
    ---2-2-2-2-2---1-1-1---6-6-6-------|
    -----------------------------------|  x4

  VERSE:

    --------------------------------------|
    --------------------------------------|
    ---14-14-14-14---12-12-12-12---11-11--|
    ---x--x--x--x----x--x--x--x-----x-x---|
    ---12-12-12-12---10-10-10-10----9-9---|
    --------------------------------------| x2

        -repeat intro 2x

   CHORUS:

     ---------------------------------------|
     ---------------------------------------|
     ---6---6---6---6---6-------------------|
     ---6---6---6---6---6----7---7---7---7--|
     ---4---4---4---4---4----7---7---7---7--|
     ------------------------5---5---5---5--|

    

     ---------------------------------------|
     ---------------------------------------|
     --9-9-9-9-9----------------------------|
     --9-9-9-9-9--4-4-4-4-------------------|
     --7-7-7-7-7--4-4-4-4-------------------|
     -------------2-2-2-2-------------------|

     ---------------------------------------|
     ---------------------------------------|
     ---------------------------------------|
     --7-7-7-7-7--9-9-9-9-9-----------------|
     --7-7-7-7-7--9-9-9-9-9-----------------|
     --5-5-5-5-5--7-7-7-7-7-----------------|

         CHORUS:


     ---------------------------------------|
     ---------------------------------------|
     ---6---6---6---6---6-------------------|
     ---6---6---6---6---6----7---7---7---7--|
     ---4---4---4---4---4----7---7---7---7--|
     ------------------------5---5---5---5--|

     "We've been blowing up, we're the issue"

     ------------------------------------------------|
     ------------------------------------------------|
     --9-9-9-9-9-------------------------------------|
     --9-9-9-9-9--4-4-4-4----------------------------|
     --7-7-7-7-7--4-4-4-4----------------------------|
     -------------2-2-2-2----------------------------|

     "Its our condition"

     
[ Tab from: http://www.guitartabs.cc/tabs/s/switchfoot/ammunition_tab.html ]
     ---------------------------------------|
     ---------------------------------------|
     ---------------------------------------|
     --7-7-7-7-7--9-9-9-9-9-----------------|
     --7-7-7-7-7--9-9-9-9-9-----------------|
     --5-5-5-5-5--7-7-7-7-7-----------------|

         -play intro 2x

   BRIDGE:

     ----------------------------------|
     ----------------------------------|
     ----------------------------------|
     ---5--5--5--5--5----7--7--7--7--7-|
     ---5--5--5--5--5----7--7--7--7--7-|
     ---3--3--3--3--3----5--5--5--5--5-|

   

     - play intro 1x

     ----------------------------------|
     ----------------------------------|
     ----------------------------------|
     ---5--5--5--5--5----7--7--7--7--7-|
     ---5--5--5--5--5----7--7--7--7--7-|
     ---3--3--3--3--3----5--5--5--5--5-|

     

     - play intro 1x

     ----------------------------------|
     ----------------------------------|
     ----------------------------------|
     ---5--5--5--5--5----7--7--7--7--7-|
     ---5--5--5--5--5----7--7--7--7--7-|
     ---3--3--3--3--3----5--5--5--5--5-|

    

     ----------------------------------|
     ----------------------------------|
     ----------------------------------|
     ---5--5--5--5--5----7--7--7--7--7-|
     ---5--5--5--5--5----7--7--7--7--7-|
     ---3--3--3--3--3----5--5--5--5--5-|

    

     ----------------------------------|
     ----------------------------------|
     ----------------------------------|
     ---5--5--5--5--5----7--7--7--7--7-|
     ---5--5--5--5--5----7--7--7--7--7-|
     ---3--3--3--3--3----5--5--5--5--5-|

   

      - play intro 2x

 CHORUS:


     ---------------------------------------|
     ---------------------------------------|
     ---6---6---6---6---6-------------------|
     ---6---6---6---6---6----7---7---7---7--|
     ---4---4---4---4---4----7---7---7---7--|
     ------------------------5---5---5---5--|

     "We've been blowing up, we're the issue"

     ------------------------------------------------|
     ------------------------------------------------|
     --9-9-9-9-9-------------------------------------|
     --9-9-9-9-9--4-4-4-4----------------------------|
     --7-7-7-7-7--4-4-4-4----------------------------|
     -------------2-2-2-2----------------------------|

     "Its our condition"

     ---------------------------------------|
     ---------------------------------------|
     ---------------------------------------|
     --7-7-7-7-7--9-9-9-9-9-----------------|
     --7-7-7-7-7--9-9-9-9-9-----------------|
     --5-5-5-5-5--7-7-7-7-7-----------------|

     "We're ammunition"
           - play intro 2x

     ---------------------------------------|
     ---------------------------------------|
     ---------------------------------------|
     --7-7-7-7-7--9-9-9-9-9-----------------|
     --7-7-7-7-7--9-9-9-9-9-----------------|
     --5-5-5-5-5--7-7-7-7-7-----------------|
Comments