Switchfoot - Adding To The Noise Chords & Tabs

 

Adding To The Noise Chords & Tabs

Switchfoot Chords & Tabs

Version: 4 Type: Tab 0 ratings
1 star 2 stars 3 stars 4 stars 5 stars
comments

Adding To The Noise Tab

Switchfoot
"Adding To The Noise" TAB
(real way to play it)

\=slide up
/=slide down

e:---------------------------------------------------------------------------|
b:---------------------------------------------------------------------------|
g:---------------------------------------------------------------------------|
d:---7-7-------------------------7-7-----------------------------------------|
a:-7-5-5-7-7-7\9-9--9-9-9-9----7-5-5-7-7-7\9-9-------------------------------|
e:-5-----5-5-5\7-7--7-7-7-7----5-----5-5-5\7-7-------------------------------|
[ Tab from: http://www.guitartabs.cc/tabs/s/switchfoot/adding_to_the_noise_tab_ver_4.html ]
e:---------------------------------------------------------------------------|
b:---------------------------------------------------------------------------|
g:---------------------------------------------------------------------------|
d:---7-7------------------------7-7-----------------------REPEAT-------------|
a:-7-5-5-7-7-7\9-9--9/7\9/7---7-5-5-7-7-7\9-9--------------------------------|
e:-5-----5-5-5\7-7--7/5\7/5---5-----5-5-5\7-7--------------------------------|

e:--------------------------------------------------------------------------|
b:--------------------------------------------------------------------------|
g:--------------------------------------------------------------------------|
d:---7-7------------------------7-7-----------------------------------------|
a:-7-5-5-7-7-7\9-9--9/7\9/7---7-5-5-7-7\8-8/1-1-----------------------------|
e:-5-----5-5-5\7-9--7/5\7/5---5-----5-5\6-6/3-3-----------------------------|

e:--------------------------------------------------------------------------|
b:--------------------------------------------------------------------------|
g:--------------------------------------------------------------------------|
d:-7-7-7-7-7--------------------------------7-7-7-7-7-----------------------|
a:-5-5-5-5-5-7--5-5-5-5-5-5-5----REPEAT 3x--5-5-5-5-5-7--5------------------|
e:-----------5--3-3-3-3-3-3-3----THEN >>>>------------5--3------------------|


Have any q's e-mail me------homedawgg66@netscape.net
Comments