Switchfoot - Adding To The Noise Chords & Tabs

 

Adding To The Noise Chords & Tabs

Switchfoot Chords & Tabs

Version: 2 Type: Tab 0 ratings
1 star 2 stars 3 stars 4 stars 5 stars
comments

Adding To The Noise Tab

   
This is the same person who tabbed the first version of this song

I have been listenin to the song more and realized that he plays slightly different 
each time he plays this part

The intro starts like this (play this 1x):

e ---------------------------------------------------------------|
B ---------------------------------------------------------------|
G ---------------------------------------------------------------|
D ---------------------------------------------------------------|
A -9-12---12-7---7-9-8-9-8-9-9-9-9-12---12-7---7-9-8-9-8-9-9-9-9-|
E -7-10---10-5---5-7-6-7-6-7-7-7-7-10---10-5---5-7-6-7-6-7-7-7-7-|

Then play this 2x:

e ---------------------------------------------------------------|
B ---------------------------------------------------------------|
G ---------------------------------------------------------------|
D ---------------------------------------------------------------|
A -9-12---12-7---7-9-8-9-8-9-8-9-9-12---12-7---7-9-8-9-8-9-8-9-9-|
E -7-10---10-5---5-7-6-7-6-7-6-7-7-10---10-5---5-7-6-7-6-7-6-7-7-|

For the first refrain they play the same thing as the tab directly above

Play it 2x but at the end of the second time instead of playin

                                        (turn off your stereo...)
e ------------------                    e -----------------------------------|
B ------------------                    B -----------------------------------|
G ------------------                    G -----------------------------------|
D ------------------ play this instead: D -----------------------------------|
A -7-9-8-9-8-9-8-9-9                    A -7-9-8-9-8-9-8-9-8-9-8-9-8-9-8-9-9-|
E -5-7-6-7-6-7-6-7-7                    E -5-7-6-7-6-7-6-7-6-7-6-7-6-7-6-7-7-|

The next 2 refrains are exactly the same. they go like this:

e --------------------------------------------------------------|
B --------------------------------------------------------------|
G --------------------------------------------------------------|
D --------------------------------------------------------------|
A -9-12---12-7---7-9-8-9-8-9-8-9-9-12---12-7---7-9--------------|
E -7-10---10-5---5-7-6-7-6-7-6-7-7-10---10-5---5-7--------------|
[ Tab from: http://www.guitartabs.cc/tabs/s/switchfoot/adding_to_the_noise_tab_ver_2.html ]
e ---------------------------------------------------------------|
B ---------------------------------------------------------------|
G ---------------------------------------------------------------|
D ---------------------------------------------------------------|
A -9-12---12-7---7-9-8-9-8-9-8-9-9-12---12-7---7-9-8-9-8-9-8-9-9-|
E -7-10---10-5---5-7-6-7-6-7-6-7-7-10---10-5---5-7-6-7-6-7-6-7-7-|

Then the refrain with just the guitar and no drums comes and it goes like this:

e ---------------------------------------------------------------|
B ---------------------------------------------------------------|
G ---------------------------------------------------------------|
D ---------------------------------------------------------------|
A ---------------------------------------------------------------|
E -7-10---10-5---5-7-6-7-6-7-6-7-7-10---10-5---5-7-6-7-6-7-6-7-7-|

e ---------------------------------------------------------------|
B ---------------------------------------------------------------|
G ---------------------------------------------------------------|
D ---------------------------------------------------------------|
A ---------------------------------------------7-9-8-9-8-9-8-9-9-|
E -7-10---10-5---5-7-6-7-6-7-6-7-7-10----------5-7-6-7-6-7-6-7-7-|

Then the final refrain comes in and is the same as the last part of the intro except 
there is an extra set of notes at the end.

e ---------------------------------------------------------------|
B ---------------------------------------------------------------|
G ---------------------------------------------------------------|
D ---------------------------------------------------------------|
A -9-12---12-7---7-9-8-9-8-9-8-9-9-12---12-7---7-9-8-9-8-9-8-9-9-|
E -7-10---10-5---5-7-6-7-6-7-6-7-7-10---10-5---5-7-6-7-6-7-6-7-7-|

e ------------------------------------------------------------------|
B ------------------------------------------------------------------|
G ------------------------------------------------------------------|
D ------------------------------------------------------------------|
A -9-12---12-7---7-9-8-9-8-9-8-9-9-12---12-7---7-9-8-9-8-9-8-9-9-12-|
E -7-10---10-5---5-7-6-7-6-7-6-7-7-10---10-5---5-7-6-7-6-7-6-7-7-10-|

Thats pretty much it. I think its pretty close.
Im still workin on the verses. there a little harder to figure out.
hopefully ill have it up soon.
Comments