Switchfoot - 24 Chords & Tabs

 

24 Chords & Tabs

Switchfoot Chords & Tabs

Version: 1 Type: Tab 0 ratings
1 star 2 stars 3 stars 4 stars 5 stars
comments

24 Tab

lyrics included.  enjoy!

verse 1: acoustic
e------------------------------------------------------------------>
B------------------------------------------------------------------>
G-2-2-2h4-2-2-2h4-2-2-2h4-2-2-2h4-4-4-4h5-4-4-4h5-2-2-2h4-2-2-2h4-->
D-5-5-5---5-5-5---5-5-5---5-5-5---0-0-0---0-0-0---5-5-5---5-5-5---->
A-----------------3-3-3---3-3-3------------------------------------>
E---------------------------------3-3-3---3-3-3-------------------->
Twenty four oceans, Twenty four skies, Twenty four failures in Twenty four tries

e------------------------------------------------------------------>
B------------------------------------------------------------------>
G-2-2-2h4-2-2-2h4-2-2-2h4-2-2-2h4-4-4-4h5-4-4-4h5-2-2-2h4-2-2-2h4-->
D-2-2-2---2-2-2---5-5-5---5-5-5---0-0-0---0-0-0---5-5-5---5-5-5---->
A-----------------3-3-3---3-3-3-------------------5-5-5---5-5-5---->
E-0-0-0---0-0-0-------------------3-3-3---3-3-3-----------2-2-2---->
Twenty four finds me in twenty-fourth place Twenty four drop outs at the end of the day

e------------------------------------------------------------------>
B---------------------------------3-3-3---3-3-3-------------------->
G-2-2-2h4-2-2-2h4-2-2-2h4-2-2-2h4-2-2-2h4-2-2-2h4-2-2-2h4-2-2-2h4-->
D-5-5-5---5-5-5---5-5-5---5-5-5---0-0-0---0-0-0---0-0-0---0-0-0---->
A-3-3-3---3-3-3---3-3-3---3-3-3---0-0-0---0-0-0-------------------->
E-----------------------------------------2-2-2---3-3-3---3-3-3---->
Life's not what I thought it was Twenty four hours ago Still I'm singing Spirit take me 
in arms with You and I'm not who I

e------------------------------------------------------------------>
B-------------------------------------------------------0-------0-->
G-2-2-2h4-2-2-2h4-2-2-2h4-2-2-2h4-2-2-2h4-2-2-2h4-0-0-0-0-0-0-0-0-->
D-2-2-2---2-2-2---5-5-5---5-5-5---0-0-0---0-0-0---7-7-7---7-7-7---->
A-----------------3-3-3---3-3-3-------------------5-5-5-5-5-5-5-5-->
E-0-0-0---0-0-0---------------------------2-2-2---3-3-3-3-3-3-3-3-->
thought I was twenty four hours ago Still I'm singing Spirit take me up in arms with You

Twenty four reasons to admit that I'm wrong With all my excuses still twenty four strong

e-3-33-3-3-33-3-3-3-33-3-3-33-3-3-3-33-3-3-33-3-3-3-33-3-3-33-3-3-->
B-3-33-3-3-33-3-3-3-33-3-3-33-3-3-3-33-3-3-33-3-3-3-33-3-3-33-3-3-->
G-0-00-0-0-00-0-0-0-00-0-0-00-0-0-2-22-2-2-22-2-2-0-00-0-0-00-0-0-->
D-0-00-0-0-00-0-0-2-22-2-2-22-2-2-0-00-0-0-00-0-0-2-22-2-2-22-2-2-->
A-2-22-2-2-22-2-2-3-33-3-3-33-3-3-0-00-0-0-00-0-0-3-33-3-3-33-3-3-->
E-3-33-3-3-33-3-3-------------------------------------------------->
See I'm not copping out not copping out not copping out When You're raising the dead in me

guitar 2 (slightly distorted)
         (guitar 1 repeats the above)
e-3~~-------------0~~-------------2~~-------------3~~------2~~----->
B-3~~-------------3~~-------------3~~-------------3~~------3~~----->
G-0~~-------------0~~-------------2~~-------------0~~------2~~----->
D-0~~-------------2~~-------------0~~-------------2~~------0~~----->
A-2~~-------------3~~-------------0~~-------------3~~------0~~----->
E-3~~-------------------------------------------------------------->
Oh, oh, I am the second man Oh, oh, I am the second man now Oh, I am the second man now 
You're raising these
[ Tab from: http://www.guitartabs.cc/tabs/s/switchfoot/24_tab.html ]
verse 2:
e----------------------------------------------------->
B-0-0-0-0-0-0--0-0-0-0-0-0---------------0-0-0-0-0-0-->
G-0-0-0-0-0-0--0-0-0-0-0-0--5-5-5-5-5-5--2-2-2-2-2-2-->
D-7-7-7-7-7-7--7-7-7-7-7-7--0-0-0-0-0-0--0-0-0-0-0-0-->
A-5-5-5-5-5-5--3-3-3-3-3-3--3-3-3-3-3-3--2-2-2-2-2-2-->
E-3-3-3-3-3-3---------------3-3-3-3-3-3--3-3-3-2-2-2-->
twenty four voices With twenty four hearts And all of my symphonies
In twenty four parts But I want to be

gt.1                                                   gt.2
e-----------------------------------------------------|-0~~-2~~-->
B-0-0-0-0-0-0--0-0-0-0-0-0---------------0-0-0-0-0-0--|-3~~-3~~-->
G-2-2-2-2-2-2--2-2-2-2-2-2--5-5-5-5-5-5--2-2-2-2-2-2--|-0~~-2~~-->
D-2-2-2-2-2-2--5-5-5-5-5-5--0-0-0-0-0-0--5-5-5-5-5-5--|-2~~-0~~-->
A--------------3-3-3-3-3-3--3-3-3-3-3-3--3-3-3-3-3-3--|-3~~-0~~-->
E-0-0-0-0-0-0---------------3-3-3-3-3-3---------------|---------->
one today Centered and true I'm singing Spirit take me up in arms with You You're 
the dead in me

guitar 1: repeat
e-3-33-3-3-33-3-3-3-33-3-3-33-3-3-3-33-3-3-33-3-3-3-33-3-3-33-3-3-->
B-3-33-3-3-33-3-3-3-33-3-3-33-3-3-3-33-3-3-33-3-3-3-33-3-3-33-3-3-->
G-0-00-0-0-00-0-0-0-00-0-0-00-0-0-2-22-2-2-22-2-2-0-00-0-0-00-0-0-->
D-0-00-0-0-00-0-0-2-22-2-2-22-2-2-0-00-0-0-00-0-0-2-22-2-2-22-2-2-->
A-2-22-2-2-22-2-2-3-33-3-3-33-3-3-0-00-0-0-00-0-0-3-33-3-3-33-3-3-->
E-3-33-3-3-33-3-3-------------------------------------------------->

guitar 2: repeat
e------------2~~--0~~--------3~~--2~~--------3~~--0~~------2~~----->
B------------3~~--3~~--------3~~--3~~--------3~~--3~~------3~~----->
G------------2~~--0~~--------0~~--2~~--------0~~--0~~------2~~----->
D------------0~~--2~~--------0~~--0~~--------0~~--2~~------0~~----->
A------------0~~--3~~--------2~~--0~~--------2~~--3~~------0~~----->
E----------------------------3~~-------------3~~------------------->
Oh, oh, I am the second man Oh, oh, I am the second man now Oh, I am the second man now 
You're raising the dead in me


I want to see miracles, see the world change Wrestled the angel, for more than a name

e------------------------------------------------------------------>
B-------------------------------------------------3-3-3---3-3-3---->
G-2-2-2h4-2-2-2h4-2-2-2h4-2-2-2h4-2-2-2h4-2-2-2h4-2-2-2h4-2-2-2h4-->
D-5-5-5---5-5-5---2-2-2---2-2-2---5-5-5---5-5-5---0-0-0---0-0-0---->
A---------------------------------3-3-3---3-3-3---0-0-0---0-0-0---->
E-----------------0-0-0---0-0-0---------------------------2-2-2---->
For more than a feeling For more than a cause I'm singing Spirit take me up in arms with You

e------------------>
B------------------>
G-2-2-2h4-2-2-2h4-->
D-0-0-0---0-0-0---->
A-2-2-2---2-2-2---->
E-3-3-3---3-3-3---->
And You're raising the dead in me

repeat this \/ 3x
e-3-33-3-3-33-3-3-3-33-3-3-33-3-3-3-33-3-3-33-3-3-3-33-3-3-33-3-3-->
B-3-33-3-3-33-3-3-3-33-3-3-33-3-3-3-33-3-3-33-3-3-3-33-3-3-33-3-3-->
G-0-00-0-0-00-0-0-0-00-0-0-00-0-0-2-22-2-2-22-2-2-0-00-0-0-00-0-0-->
D-0-00-0-0-00-0-0-2-22-2-2-22-2-2-0-00-0-0-00-0-0-2-22-2-2-22-2-2-->
A-2-22-2-2-22-2-2-3-33-3-3-33-3-3-0-00-0-0-00-0-0-3-33-3-3-33-3-3-->
E-3-33-3-3-33-3-3-------------------------------------------------->
Twenty four voices With twenty four hearts With all of my symphonies  In twenty four 
Life is not what I thought it was twenty four hours ago still I'm singing Spirit take me up 
arms yeah, I'm not copping out Not copping out Not, not copping out
Comments