Switched - Anymore Chords & Tabs

 

Anymore Chords & Tabs

Switched Chords & Tabs

Version: 1 Type: Bass Tab 0 ratings
1 star 2 stars 3 stars 4 stars 5 stars
comments

Anymore Bass Tab

intro/pre-chorus
G------------------------------------------
D------------------------------------------
A------------------------------------------
E------------------------------------------
A-2-3-0-3-5-0-3-2-0-3-4-0-3-2--------------

riff 1
G---------------
D---------------
A---------------
E-32-2-32-2-32--
A---------------

verse
G---------------------
D-----------11\-------
A---------------------
E--------/9-----------
A-000-0---------0-00--
[ Tab from: http://www.guitartabs.cc/tabs/s/switched/anymore_btab.html ]
chorus
G-------------------------------------
D-------------------------------------
A-------------------------------------
E-32-3-32-3-32-3-32-3333333h41111111--
A-------------------------------------

breakdown
G--------------------------------------------
D--------------------------------------------
A----------5454------------------------------
E--------------------------------------------
A-0--3232-------3-3232--5--------------------

End
G---------------------
D---------------------
A---------------------
E-32-23-32-23-32--xx--
A---------------------
Comments