Swingin Utters - Stupid Lullaybeys Chords & Tabs

 

Stupid Lullaybeys Chords & Tabs

Swingin Utters Chords & Tabs

Version: 1 Type: Tab 0 ratings
1 star 2 stars 3 stars 4 stars 5 stars
comments

Stupid Lullaybeys Tab

INTRO

e----------------------------------------------------------------------------
B----------------------------------------------------------------------------
G-----1------------------------9---------------------------------------------
D-----2-----4-----6-----7------9----9-----11----7-------------9-----7--------
A-----2-----4-----6-----7-x2---7----9-----11----7-x3----------9-x6--7-x6-----
E-----------2-----4-----5-----------7-----9-----5-------------7-----5--------

Main Riff
[ Tab from: http://www.guitartabs.cc/tabs/s/swingin_utters/stupid_lullaybeys_tab.html ]
e-------------------------------2/4-4------
B-5-7-9-7-5-4-5-7-5-4-2-4-5-4-2------------ x2 but on the 2nd time,leave out the 4-4 at the end.- 

Verse/Intro- The Verse is the same thing as the Intro
Main Riff
Verse/Intro
Main Riff

SOLO

e---------------------------------------------------------------------------
B---------------------------------------------------------------------------
G---------------------------------------------------------------------------
D---------------------------------------------------------------------------
A-7---7-9---9-11----11-12-11-9--x2-then--12-12-11-11-11-11-x3--9-7x16 and
E---7------7-------7--------------------||| and bend on the last note- Listen to the song
Comments