Swingin Utters - I Need Feedback Chords & Tabs

 

I Need Feedback Chords & Tabs

Swingin Utters Chords & Tabs

Version: 1 Type: Tab 0 ratings
1 star 2 stars 3 stars 4 stars 5 stars
comments

I Need Feedback Tab

I Need Feedback by Swingin' Utters

tabbed by luke w; bmxdudeswetz@yahoo.com


intro
             x3
e|----------------------------|--------------------|
B|----------------------------|--------------------|
G|-------------------------9--|--------------------|
D|--7/9-9-9-7/9-9-9--7/9-9-9--|--------------------|
A|--7/9-9-9-7/9-9-9--7/9-9-7--|--7-7-7-7\-5-/7/11--|
E|--5/7-7-7-5/7-7-7--5/7-7----|--------------------|

e|--------------------------------------------|
B|--------------------------------------------|
G|--------------------------------------------|
D|--7/9-9-9-9--7/9-9-9-9--7/9--7/9--7/9-9-9-9-|
A|--7/9-9-9-9--7/9-9-9-9--7/9--7/9--7/9-9-9-9-|
E|--5/7-7-7-7--5/7-7-7-7--5/7--5/7--5/7-7-7-7-|


verse

e|------------------------------------------------|
B|------------------------------------------------|
G|--------------9-9-9-9-9-X-----------------------|
D|--9-9-9-9-9-9-9-9-9-9-9-X--9-9-9-9X-9-9-9-9-9-9-| repeat if necessary
A|--9-9-9-9-9-9-7-7-7-7-7-X--9-9-9-9X-9-9-9-9-9-9-|
E|--7-7-7-7-7-7--------------7-7-7-7X-7-7-7-7-7-7-|


chorus

e|------------------------|                    -------------------------------|
B|------------------------|                    -------------------------------|
G|--9-9-9-9XX-------------|                    -11-11-11-11-11-11-11-11-11-11-|
D|--9-9-9-9XX-9-9-9-9-9XX-| repeat accordingly -11-11-11-11-11-11-11-11-11-11-|
A|--7-7-7-7XX-9-9-9-9-9XX-|                    -9--9--9--9--9--9--9--9--9--9--|
E|------------7-7-7-7-7XX-|                    -------------------------------|



kick ass solo
[ Tab from: http://www.guitartabs.cc/tabs/s/swingin_utters/i_need_feedback_tab.html ]
        v                                      P     P      v
e|--------------------------------------|-----------------------|
B|--------------------------------------|-----------------------|
G|---------12^(14)-10/12-12\10----------|-----------------------|
D|--10/12~~ -------------------12-10h12-|-10h12-10h12-10h12~~ --|
A|--------------------------------------|-----------------------|
E|--------------------------------------|-----------------------|
  
              <--------- extremely quick --------->           
e|----------------------------------------------------------------------------------|
B|--11^(13)~~ 14p13p11 14p13p11 14p13p11 14p13p11--14^(16)-11-14p13p11-11-14-11-14~~|
G|----------------------------------------------------------------------------------|
D|----------------------------------------------------------------------------------|
A|----------------------------------------------------------------------------------|
E|----------------------------------------------------------------------------------|

e|---------------------------------------------|
B|--14^(16)-13-11-13-14-11--11-14-13-11-13-14--|
G|---------------------------------------------|
D|---------------------------------------------|
A|---------------------------------------------|
E|---------------------------------------------|

 I'm not 100% sure about this part, sounds ok though.
       |
       v
e|--14^(16)-14-13-----------------------------------------|
B|----------------14-13-14-13-14--11-13-11-13-11-14-13~~ -|
G|--------------------------------------------------------|
D|--------------------------------------------------------|
A|--------------------------------------------------------|
E|--------------------------------------------------------|

       {  x6  }
e|-----------------------|
B|--14-14p13p11--13-11~~ |
G|-----------------------|
D|-----------------------|
A|-----------------------|
E|-----------------------|

comments/ ratings etc please, corrections welcomed
Comments