Swingin Utters - Five Lessons Learned Chords & Tabs

 

Five Lessons Learned Chords & Tabs

Swingin Utters Chords & Tabs

Version: 1 Type: Tab 0 ratings
1 star 2 stars 3 stars 4 stars 5 stars
comments

Five Lessons Learned Tab

Created by: Dale Weekes
Artist: Swingin' Utters
Song Title: Five Lessons Learned
================================
INTRO:
e|----------------------------------------------|
B|----------------------------------------------|
G|---9-9---9-9---9-9---9-9---9-9---9-9---9-9---9|
D|---9-9---9-9---9-9---9-9---9-9---9-9---9-9---9|
A|---7-7---7-7---7-7---7-7---7-7---7-7---7-7---7|
E|----------------------------------------------|

e|--------------------------|
B|--------------------------|
G|---9-----7-----5-----4-4-4|
D|---9--9--7--7--5--5--4-4-4|
A|---7--9--5--7--3--5--2-2-2|
E|------7-----5-----3-------| x4 (3rd and 4th time with two guitars and drums)

This is how far i have got.
I would be grateful if someone would put in the verse tab.
E-Mail me at dale_weekes@yahoo.co.uk
====================================
[ Tab from: http://www.guitartabs.cc/tabs/s/swingin_utters/five_lessons_learned_tab.html ]
Comments