Swingin Utters - Brazen Head Chords & Tabs

 

Brazen Head Chords & Tabs

Swingin Utters Chords & Tabs

Version: 1 Type: Tab 0 ratings
1 star 2 stars 3 stars 4 stars 5 stars
comments

Brazen Head Tab

   
BRAZEN HEAD by SWINGIN' UTTERS. Album: Brazen Head E.P.
One of the best utters songs, including a marvelous solo that is
cool to play!!! Great variation of striking chords by the way!
:
explanations:

A=lead guitar    B=1.background guitar  C=2.background guitar

v=vibrato        p=palm-muted           h=hammer on      b=bend to next note

X=mute           \= slide down          /=slide up       p=pull off
:
:
# Intro1 #A 

E---------------------|
B---10\--5---7---6v---|
G---------------------|
D---------------------|
A---------------------|
E---------------------|

# Intro1 #B

E---5----4---2---5----|
B---5----5---3---6----|
G---6----6---4---7----|
D---7----6---4---7----|
A---7----4---2---5----|
E---5-----------------|
    A    C#m Bm  Dm
:
:
# Intro2 #A&B X2 

E---5--5--X--5--X--4--4--X--4--4--X--2--2--X--2--X--5--5--X--5--5--X---|
B---5--5--X--5--X--5--5--X--5--5--X--3--3--X--3--X--6--6--X--6--6--X---|
G---6--6--X--6--X--6--6--X--6--6--X--4--4--X--4--X--7--7--X--7--7--X---|
D---7--7--X--7--X--6--6--X--6--6--X--4--4--X--4--X--7--7--X--7--7--X---|
A---7--7--X--7--X--4--4--X--4--4--X--2--2--X--2--X--5--5--X--5--5--X---|
E---5--5--X--5--X------------------------------------------------------|
:
:
# Verse1 # *=play X8  #=play X4-5  (not sure if this chord is right)

E---5--5--X--5--X--4--4--X--4--4--4--X--2--2--2--X--2--2--2--X--5--5--5--X--5--5--5--X--->
B---5--5--X--5--X--5--5--X--5--5--5--X--3--3--3--X--3--3--3--X--6--6--6--X--6--6--6--X--->
G---6--6--X--6--X--6--6--X--6--6--6--X--4--4--4--X--4--4--4--X--7--7--7--X--7--7--7--X--->
D---7--7--X--7--X--6--6--X--6--6--6--X--4--4--4--X--4--4--4--X--7--7--7--X--7--7--7--X--->
A---7--7--X--7--X--4--4--X--4--4--4--X--2--2--2--X--2--2--2--X--5--5--5--X--5--5--5--X--->
E---5--5--X--5--X------------------------------------------------------------------------>

>---5--5--X--5--X--4--4--X--4--4--X--2--2--X--2--X--5--5--X--5--5--X--->
>---5--5--X--5--X--5--5--X--5--5--X--3--3--X--3--X--6--6--X--6--6--X--->
>---6--6--X--6--X--6--6--X--6--6--X--4--4--X--4--X--7--7--X--7--7--X--->
>---7--7--X--7--X--6--6--X--6--6--X--4--4--X--4--X--7--7--X--7--7--X--->
>---7--7--X--7--X--4--4--X--4--4--X--2--2--X--2--X--5--5--X--5--5--X--->
>---5--5--X--5--X------------------------------------------------------>

>---5--5--X--5--X--4--4--X--4--4--X--5--5--X--5--(7)---8--X---8--->
>---5--5--X--5--X--6--6--X--6--6--X--7--7--X--7--(9)--10--X--10--->
>---6--6--X--6--X--6--6--X--6--6--X--7--7--X--7--(9)--10--X--10--->
>---7--7--X--7--X--6--6--X--6--6--X--7--7--X--7--(9)--10--X--10--->
>---7--7--X--7--X--4--4--X--4--4--X--5--5--X--5--(7)---8--X---8--->
>---5--5--X--5--X---------------------------------------------*--->

>---5--5--X--5--X--4--4--X--4--4--X--2#-X--5*--|
>---5--5--X--5--X--5--5--X--5--5--X--2--X--7---|
>---6--6--X--6--X--6--6--X--6--6--X--3--X--7---|
>---7--7--X--7--X--6--6--X--6--6--X--4--X--7---|
>---7--7--X--7--X--4--4--X--4--4--X--4--X--5---|
>---5--5--X--5--X--------------------2--X------|
:
:
# Chorus1 #A X8 

E---------------------|
B---10--9-------------|  !comes in when
G----------11--9------|  Chorus1B has been 
D---------------------|  played once!
A---------------------|
E---------------------|

# Chorus1 #B X2 !find the right rhythm!

E------------------7--7-7-7--5--5--5-5-5------------------|
B------5-----5-----9--9-9-9--7--7--7-7-7--5-----5-----5---|
G---6--6--6--6--9--9--9-9-9--7--7--7-7-7--6--6--6--6--6---|
D---7--7--7--7--9--9--9-9-9--7--7--7-7-7--7--7--7--7--7---|
A---7-----7-----7----------------------------7-----7------|
E---------------------------------------------------------|
    p     p     p                            p     p

# Chorus1 #C X2 !play every note X8 palm-muted!

E---------------------------------------------------------|
B---------------------------------------------------------|  (difficult to hear!!)
G---------------------------------------------------------|  
D---------------9------------7----------------------------|  
A---7-----------7------------5------------7---------------|
E---5-------------------------------------5---------------|
:
:
# Verse2 #A

E---------------------------------------------------------------------->
B---10----------------------------------------------------------------->
G---------------------------------------------------------------------->
D---------------------------------------------------------------------->
A---------------------------------------------------------------------->
E---------------------------------------------------------------------->

# Verse2 #B *=play X8  #=play X4-5

E---5--5--X--5--X--4--4--X--4--4--X--2--2--X--2--X--5--5--X--5--5--X--->
B---5--5--X--5--X--5--5--X--5--5--X--3--3--X--3--X--6--6--X--6--6--X--->
G---6--6--X--6--X--6--6--X--6--6--X--4--4--X--4--X--7--7--X--7--7--X--->
D---7--7--X--7--X--6--6--X--6--6--X--4--4--X--4--X--7--7--X--7--7--X--->
A---7--7--X--7--X--4--4--X--4--4--X--2--2--X--2--X--5--5--X--5--5--X--->
E---5--5--X--5--X------------------------------------------------------>

>------------------------------------------------------------------------------------->
>------------------------------------------------------------------------------------->
>---6--------------4-------------------7---------------------10---------9------------->
<------------------------------------------------------------------------------------->
>---4--------------2-------------------5---------------------8----------7------------->
>------------------------------------------------------------------------------------->

>---5--5--X--5--X--4--4--X--4--4--4--X--2--2--2--2--2--2--X--5--5--5--X--5--5--5--X--->
>---5--5--X--5--X--5--5--X--5--5--5--X--3--3--3--3--3--3--X--6--6--6--X--6--6--6--X--->
>---6--6--X--6--X--6--6--X--6--6--6--X--4--4--4--4--4--4--X--7--7--7--X--7--7--7--X--->
>---7--7--X--7--X--6--6--X--6--6--6--X--4--4--4--4--4--4--X--7--7--7--X--7--7--7--X--->
>---7--7--X--7--X--4--4--X--4--4--4--X--2--2--2--2--2--2--X--5--5--5--X--5--5--5--X--->
>---5--5--X--5--X--------------------------------------------------------------------->

>------------------------>
>------------------------>
>---6--4--7-------------->
>------------------------>
>---4--2--5-------------->
>------------------------>

>---5*-4*-5*--8--X---8*-->
>---5--6--7--10--X--10--->
>---6--6--7--10--X--10--->
>---7--6--7--10--X--10--->
>---7--4--5---8--X---8--->
>---5-------------------->

>----------------------------------------------|
>----------------------------------------------|
>----------------------------------------------|
>---7\-----------------------------------------|
>----------------------------------------------|
>----------------------------------------------|
[ Tab from: http://www.guitartabs.cc/tabs/s/swingin_utters/brazen_head_tab.html ]
>---5--5--X--5--X--4--4--X--4--4--X--2#-X--5*--|
>---5--5--X--5--X--5--5--X--5--5--X--2--X--7---|
>---6--6--X--6--X--6--6--X--6--6--X--3--X--7---|
>---7--7--X--7--X--6--6--X--6--6--X--4--X--7---|
>---7--7--X--7--X--4--4--X--4--4--X--4--X--5---|
>---5--5--X--5--X--------------------2--X------|
:
:
Then play AChorus1A X8 (comes is when Chorus1B has been played once) and
BChorusB X2 and CChorusC X2.
:
:
# Chorus2 #B X2 !play every chord X8!

E---5--7--5--5---|
B---5--9--7--5---| A plays Chorus1A X16!
G---6--9--7--6---|
D---7--9--7--7---|
A---7--7--5--7---|
E---5--------5---|
:
:
# Bridge #A&B *=play X8  #=play X6
 
E---7*--5*--5*--4#--5--7*--5*--5*--4#--5---7*--5*--5*--4#--5---7*--5*--7*--7*--|
B---9---7---5---5---7--7---7---5---5---7---7---7---5---5---7---7---7---9---9---|
G---9---7---6---6---7--7---7---6---6---7---7---7---6---6---7---7---7---9---9---|
D---9---7---7---6---7--9---7---7---6---7---9---7---7---6---7---9---7---9---9---|
A---7---5---7---4---5--9---5---7---4---5---9---5---7---4---5---9---5---7---7---|
E-----------5----------7-------5-----------7-------5-----------7---------------|
:
:
# Solo #A 
!B plays Intro2A&B X4 (second time: play the  Bm- and the Dm-chord without mutings)!

E-------------------------------------------------------------------------------->
B----------------------------------------9--10-10b12--10--12/14--14--12--14b15--->
G---14-\--9--11--10-10-10-10-10p9-9--11------------------------------------------>
D-------------------------------------------------------------------------------->
A-------------------------------------------------------------------------------->
E-------------------------------------------------------------------------------->

>------------------------------------------------------------------->
>---14b15--14p12--14p12------12------------------------------------->
>------------------------14------14p13--14p13--11--13--11p9--9h11--->
>------------------------------------------------------------------->
>------------------------------------------------------------------->
>------------------------------------------------------------------->

>-------------------------------------------------------------------------------------------|
>------------------------------------9--10-10h12--14--12--14b15--14p12--14--12--------------|
>---9--10--9-------------------9h11---------------------------------------------14p13--14---|
>-------------12-12p11-11--12---------------------------------------------------------------|
>-------------------------------------------------------------------------------------------|
>-------------------------------------------------------------------------------------------|
:
:
# Verse3 #A 

E---------------------------------------------------------------------->
B---------------------------------------------------------------------->
G---------------------------------------------------------------------->
D---------------------------------------------------------------------->
A---------------------------------------------------------------------->
E---------------------------------------------------------------------->

# Verse3 #B *=play X8  #=play X4-5

E---5--5--X--5--X--4--4--X--4--4--X--2--2--X--2--X--5--5--X--5--5--X--->
B---5--5--X--5--X--5--5--X--5--5--X--3--3--X--3--X--6--6--X--6--6--X--->
G---6--6--X--6--X--6--6--X--6--6--X--4--4--X--4--X--7--7--X--7--7--X--->
D---7--7--X--7--X--6--6--X--6--6--X--4--4--X--4--X--7--7--X--7--7--X--->
A---7--7--X--7--X--4--4--X--4--4--X--2--2--X--2--X--5--5--X--5--5--X--->
E---5--5--X--5--X------------------------------------------------------>

>---------------------------------------------------------------------->
>---------------------------------------------------------------------->
>---6--------------4-----------------7--------------10-------9--------->
<---------------------------------------------------------------------->
>---4--------------2-----------------5---------------8-------7--------->
>---------------------------------------------------------------------->

>---5--5--X--5--X--4--4--X--4--4--X--2--2--X--2--X--5--5--X--5--5--X--->
>---5--5--X--5--X--5--5--X--5--5--X--3--3--X--3--X--6--6--X--6--6--X--->
>---6--6--X--6--X--6--6--X--6--6--X--4--4--X--4--X--7--7--X--7--7--X--->
>---7--7--X--7--X--6--6--X--6--6--X--4--4--X--4--X--7--7--X--7--7--X--->
>---7--7--X--7--X--4--4--X--4--4--X--2--2--X--2--X--5--5--X--5--5--X--->
>---5--5--X--5--X------------------------------------------------------>

>---------------------------->
>---------------------------->
>---6-----4---7-------------->
>------------------------7*-->
>---4-----2---5-------------->
>---------------------------->

>---5*-X--4*--5*--8--X---8*-->
>---5--X--6---7--10--X--10--->
>---6--X--6---7--10--X--10--->
>---7--X--6---7--10--X--10--->
>---7--X--4---5---8--X---8--->
>---5--X--------------------->

>--------------------------------------------|
>--------------------------------------------|
>------#-------------------------------------|
>---7-7-7\-----------------------------------|
>--------------------------------------------|
>--------------------------------------------|

>---5--5--X--5--X--4--4--X--4--4--X--2#--5*--|
>---5--5--X--5--X--5--5--X--5--5--X--2---7---|
>---6--6--X--6--X--6--6--X--6--6--X--3---7---|
>---7--7--X--7--X--6--6--X--6--6--X--4---7---|
>---7--7--X--7--X--4--4--X--4--4--X--4---5---|
>---5--5--X--5--X--------------------2-------|
:
:
# Chorus3 #B *=play X4-5 palm-muted  ()=play sometimes  !find the right rhythm!

E----------------7--7-7-7--5--5--5-5-5----------------|  
B-----*---*---9--9--9-9-9--7--7--7-7-7--5-----*----*--| !A plays Chorus1A X8!
G--(6)--(6)---9--9--9-9-9--7--7--7-7-7--6--(6)--(6)---| (comes is when Chorus1B  
D--(7)--(7)---7--9--9-9-9--7--7--7-7-7--7--(7)--(7)---|  has been played once) 
A---7----7----------------------------------7----7----|
E-----------------------------------------------------|
              p                            

# Chorus3 #C X2 !play every note X8 palm-muted! 

E---------------------------------------------------------|
B---------------------------------------------------------|  (difficult to hear!!)
G---------------------------------------------------------|  
D---------------9-----------7-----------------------------|  
A---7-----------7-----------5------------7----------------|
E---5------------------------------------5----------------|
:
:
Then play AChorus1A X16 and BChorus2B X2!
:
:
# Outro #A&B X4 !Soemtimes the mutings are differently arranged!

E---5--5--X--5--X--4--4--X--4--4--X--3--3--X--3--3--3--X--4--4--4--X--4--4--X---|
B---5--5--X--5--X--5--5--X--5--5--X--3--3--X--3--3--3--X--4--4--4--X--4--4--X---|
G---6--6--X--6--X--6--6--X--6--6--X--4--4--X--4--4--4--X--4--4--4--X--4--4--X---|
D---7--7--X--7--X--6--6--X--6--6--X--5--5--X--5--5--5--X--6--6--6--X--6--6--X---|
A---7--7--X--7--X--4--4--X--4--4--X--5--5--X--5--5--5--X--6--6--6--X--6--6--X---|
E---5--5--X--5--X--------------------3--3--X--3--3--3--X--4--4--4--X--4--4--X---|
:
:
Well, hope you got it!
Questions to: kay@weltzeituhr.com!
Tabbed by Kay R.  03.07.2003
Comments