Swell - Lifes Great Chords & Tabs

 

Lifes Great Chords & Tabs

Swell Chords & Tabs

Version: 1 Type: Bass Tab

Lifes Great Bass Tab

Song : LIFE’S GREAT
Artist : SWELL
Album : BASTARD & RARITIES (1989-1994)
Official website : www.swellsongs.com


Intro & verse :
---|----------------------------------|
---|----------------------------------|
---|-----1-1-----3-1-----1---0-1-0-0--|
-0-|-3-------3-------3----------------|

then :
-|------------|-------------|
-|------------|-------------|
-|------------|-------------|
-|-3----------|----------1/-|
...isn't a life great ?
[ Tab from: http://www.guitartabs.cc/tabs/s/swell/lifes_great_btab.html ]
instrumental part :
-|----------------|----------------|-----------------|----------------|
-|----------------|----------------|-----------------|----------------|
-|----------------|----------------|-----------------|----------------|
-|-3---3---3---3--|-3---3---3---4--|-5---5---5---5-5-|-6-6-6---8-8-8--|

ending :
-|----------------|-----------------|
-|----------------|-----------------|
-|----------------|-----------------|
-|-8---8---8---8--|-8---8---8---8---|

-|----------------|----------------|----------------|-----------------|
-|----------------|----------------|----------------|-----------------|
-|-5---5---5---5--|-5---5---3---3--|-3---3---3---3--|-----------------|
-|----------------|----------------|----------------|-5---5---5---5---|

-|----------------|----------------|---|
-|----------------|----------------|---|
-|----------------|----------------|---|
-|-5---5---4---4--|-4---4---4---4--|-3-|