Sweetnam Skye - Number One Chords & Tabs

 

Number One Chords & Tabs

Sweetnam Skye Chords & Tabs

Version: 1 Type: Tab 0 ratings
1 star 2 stars 3 stars 4 stars 5 stars
comments

Number One Tab

   
-------------------------------------------------------------

     SKYE SWEETNAM - NUMBER ONE. From NOISE FROM THE BASEMENT
                     album. Released on 21st September 2004.

-------------------------------------------------------------

     Tabbed by:PJVillanueva






I saw my boyfriend
Hanging with this girl that I hate
He didn't have to tell me
Why last night he was late

I can't believe what you tell me
Your lies have come undone
Now I'm living on the run
Looking out for number one

I took a ride to the city
Had to get out of this place
I just can't stand the pity
When the tears fall down my face

I used to think it was over
But it's only just begun
Now I'm living on the run
Looking out for number one

One day you'll see me          
But only when you're dreaming
One day you'll say        
I was the one

I hitched a ride on a Greyhound
Stashed away on a train
Bought a ticket for the subway
Playing guitar in the rain

I wanna follow the rivers
To an island in the sun
Now I'm living on the run
Looking out for number

One day you'll see me
But only when you're dreaming
One day you'll say
I was the one

Late at night
Trying to fight
I just might think about him
Right now I'm feeling fine
I'm better off without him

YEAH!

One day...
One day...
One day...
You'll say
I was the one

One day you'll see me
But only when you're dreaming
One day you'll say
I was the one

I know that one day
You'll see me
I'll haunt you when you're dreaming
One day you'll say
I was the one
I'm number one

                                                                       
                                                                     
    Tune your guitar half a step downd (Eb Ab Db Gb Bb Eb) to
    match the recording.
                                                                             

                                     
  
e|------- ------- ------- -------|------- ----2-- ------- ----2--|
B|------------3------------------|-------------------------------|
G|--------0---------------0---0--|--------0---------------0------|
D|-------------------------------|-------------------------------|
A|-------------------------------|2------------------------------|
E|3------------------------------|-------------------------------|
          I       saw     my      boyfriend       Hanging 


e|------- ----3-- ------- ----3--|------- ----0-- ------- ----0--|
B|-------------------------------|-------------------------------|
G|--------0---------------0------|--------0---------------0------|
D|-------------------------------|-------------------------------|
A|3------------------------------|0------------------------------|
E|-------------------------------|-------------------------------|
  with   this     girl    that I  hate


e|------- ------- ------- -------|------- ----2-- ------- ----2--|
B|------------3------------------|--------0----------------------|
G|--------0---------------0------|------------------------0------|
D|-------------------------------|-------------------------------|
A|-------------------------------|2------------------------------|
E|3------------------------------|-------------------------------|
          He      didn't          have    to      tell    me


e|------- ----3-- ------- ----3--|------- ----5-- ------- ----5--|
B|-------------------------------|-------------------------------|
G|--------0---------------0------|--------2---------------2------|
D|-------------------------------|0------------------------------|
A|3------------------------------|-------------------------------|
E|-------------------------------|-------------------------------|
  Why     last    night   he was  late


e|------- ----3-- ------- ----3--|------- ----5-- ------- ----5--|
B|-------------------------------|-------------------------------|
G|--------0---------------0------|--------2---------------2------|
D|-------------------------------|0------------------------------|
A|3------------------------------|-------------------------------|
E|-------------------------------|-------------------------------|
      I   can't believe   what you tell   me              Your 


e|------- ------- ------- -------|------- ------- ------- -------|
B|------------3---------------3--|------------3---------------0--|
G|--------0---------------2------|--------0---------------0------|
D|-------------------------------|-------------------------------|
A|-------------------------------|-------------------------------|
E|3---------------2--------------|3------------------------------|
  lies    have    come    undone

  C5                              D5
e|------- ------- ------- -------|------- ------- ------- -------|
B|-------------------------------|-------------------------------|
G|5---5--------------------------|7---7--------------------------|
D|5---5--------------------------|7---7--------------------------|
A|3---3--------------------------|5---5--------------------------|
E|-------------------------------|-------------------------------|
          Now I'm living on   the run     Looking out for number 


e|------- ------- ------- -------|------- ------- ------- -------|
B|-------------------------------|-------------------------------|
G|-------------------------------|-------------------------------|
D|-------------------------------|-------------------------------|
A|----------------2-------3---2--|----------------2-------3---2--|
E|3---3---3---3-------3----------|3---3---3---3-------3----------|
  one


e|------- ------- ------- -------|------- ------- ------- -------|
B|-------------------------------|-------------------------------|
G|-------------------------------|-------------------------------|
D|-------------------------------|-------------------------------|
A|----------------2-------3---2--|----------------2-------3---2--|
E|3---3---3---3-------3----------|3---3---3---3-------3----------|


  G5                              B5
e|------- ------- ------- -------|------- ------- ------- -------|
B|-------------------------------|-------------------------------|
G|-------------------------------|-------------------------------|
D|-------------------------------|-------------------------------|
A|5---5---5---5---5---5---5---5-/|9---9---9---9---9---9---9---9--|
E|3---3---3---3---3---3---3---3-/|7---7---7---7---7---7---7---7--|
      I   took a  ride    to  the city

  C5                              A5
e|------- ------- ------- -------|------- ------- ------- -------|
B|-------------------------------|-------------------------------|
G|-------------------------------|-------------------------------|
D|-------------------------------|-------------------------------|
A10--10--10--10--10--10--10--10-\|7---7---7---7---7---7---7---7--|
E|8---8---8---8---8---8---8---8-\|5---5---5---5---5---5---5---5--|
  Had     to get  out     of this place

  G5                              B5
e|------- ------- ------- -------|------- ------- ------- -------|
B|-------------------------------|-------------------------------|
G|-------------------------------|-------------------------------|
D|-------------------------------|-------------------------------|
A|5---5---5---5---5---5---5---5--|9---9---9---9---9---9---9---9--|
E|3---3---3---3---3---3---3---3--|7---7---7---7---7---7---7---7--|
          I  just can't stand the pity                    When the 

  C5                              D5
e|------- ------- ------- -------|------- ------- ------- -------|
B|-------------------------------|-------------------------------|
G|-------------------------------|-------------------------------|
D|-------------------------------|-------------------------------|
A10--10--10--10--10--10--10--10--12--12--12--12--12--12--12--12--|
E|8---8---8---8---8---8---8---8--10--10--10--10--10--10--10--10--|
  tears   fall    down    my      face

  C5                              D5
e|------- ------- ------- -------|------- ------- ------- -------|
B|-------------------------------|-------------------------------|
G|-------------------------------|-------------------------------|
D|-------------------------------|-------------------------------|
A10--10--10--10--10--10--10--10--12--12--12--12--12--12--12--12-\|
E|8---8---8---8---8---8---8---8--10--10--10--10--10--10--10--10-\|
      I   used to think   it  was over                    But it's
 
  G5              GMaj5           E5
e|------- ------- ------- -------|------- ------- ------- -------|
B|-------------------------------|-------------------------------|
G|-------------------------------|-------------------------------|
D|-------------------------------|-------------------------------|
A|5---5---5---5---5---5---5---5--|2---2---2---2---2---2---2---2--|
E|3---3---3---3---2---2---2---2--|0---0---0---0---0---0---0---0--|
  only            just    begun

  C5                              D5
e|------- ------- ------- -------|------- ------- ------- -------|
B|-------------------------------|-------------------------------|
G|5---5--------------------------|7---7--------------------------|
D|5---5--------------------------|7---7--------------------------|
A|3---3--------------------------|5---5--------------------------|
E|-------------------------------|-------------------------------|
          Now I'm living on   the run     Looking out for number 


e|------- ------- ------- -------|
B|-------------------------------|
G|-------------------------------|
D|-------------------------------|
A|-------------------------------|
E|-------------------------------|
  one
 (One)

  G5              D5              E5              C5    
e|------- ------- ------- -------|------- ------- ------- -------|
B|-------------------------------|-------------------------------|
G|-------------------------------|-------------------------------|
D|5-------5----/-12------12----/-14------14----\-10------10------|
A|5-------5----/-12------12----/-14------14----\-10------10------|
E|3-------3----/-10------10----/-12------12----\--8-------8------|
  One             day                     you'll  see     me     

  G5              D5              E5              C5      D5   
e|------- ------- ------- -------|------- ------- ------- -------|
B|-------------------------------|-------------------------------|
G|-------------------------------|-------------------------------|
D|5-------5----/-12------12------14------14----\-10------12------|
A|5-------5----/-12------12------14------14----\-10------12------|
E|3-------3----/-10------10------12------12----\--8------10------|
          But     only            when    you're  dreaming

  G5              D5              E5              C5    
e|------- ------- ------- -------|------- ------- ------- -------|
B|-------------------------------|-------------------------------|
G|-------------------------------|-------------------------------|
D|5-------5----/-12------12----/-14------14----\-10------10------|
A|5-------5----/-12------12----/-14------14----\-10------10------|
E|3-------3----/-10------10----/-12------12----\--8-------8------|
  One             day                     you'll  say     I 

  G5              D5
e|------- ------- ------- -------|
B|-------------------------------|
G|-------------------------------|
D|5-------5----/-12------12------|
A|5-------5----/-12------12------|
E|3-------3----/-10------10------|
  was             the 

  C5
e|------- ------- ------- -------|------- ------- ------- -------|
B|-------------------------------|-------------------------------|
G|-------------------------------|-------------------------------|
D10------10------10------10------10------10------10------10------|
A10------10------10------10------10------10------10------10------|
E|8-------8-------8-------8------|8-------8-------8-------8------|
  one
 (One)

e|------- ------- ------- -------|------- ------- ------- -------|
B|-------------------------------|-------------------------------|
G|-------------------------------|-------------------------------|
D|-------------------------------|-------------------------------|
A|----------------2-------3---2--|----------------2-------3---2--|
E|3---3---3---3-------3----------|3---3---3---3-------3----------|
  one


e|------- ------- ------- -------|------- ------- ------- -------|
B|-------------------------------|-------------------------------|
G|-------------------------------|-------------------------------|
D|-------------------------------|-------------------------------|
A|----------------2-------3---2--|----------------2-------3---2--|
E|3---3---3---3-------3----------|3---3---3---3-------3----------|    


  G5                              B5
e|------- ------- ------- -------|------- ------- ------- -------|
B|-------------------------------|-------------------------------|
G|-------------------------------|-------------------------------|
D|-------------------------------|-------------------------------|
A|5---5---5---5---5---5---5---5-/|9---9---9---9---9---9---9---9--|
E|3---3---3---3---3---3---3---3-/|7---7---7---7---7---7---7---7--|
      I hitched a ride    on  a   Greyhound

  C5                              A5
e|------- ------- ------- -------|------- ------- ------- -------|
B|-------------------------------|-------------------------------|
G|-------------------------------|-------------------------------|
D|-------------------------------|-------------------------------|
A10--10--10--10--10--10--10--10-\|7---7---7---7---7---7---7---7--|
E|8---8---8---8---8---8---8---8-\|5---5---5---5---5---5---5---5--|
  Stashed away            on  a   train

  G5                              B5
e|------- ------- ------- -------|------- ------- ------- -------|
B|-------------------------------|-------------------------------|
G|-------------------------------|-------------------------------|
D|-------------------------------|-------------------------------|
A|5---5---5---5---5---5---5---5-/|9---9---9---9---9---9---9---9--|
E|3---3---3---3---3---3---3---3-/|7---7---7---7---7---7---7---7--|
         Bought a ticket  for the subway                  Playing    

  C5                              D5
e|------- ------- ------- -------|------- ------- ------- -------|
B|-------------------------------|-------------------------------|
G|-------------------------------|-------------------------------|
D|-------------------------------|-------------------------------|
A10--10--10--10--10--10--10--10-/12--12--12--12--12--12--12--12--|
E|8---8---8---8---8---8---8---8-/10--10--10--10--10--10--10--10--|
  guitar          in      the     rain 

  C5                              D5
e|------- ------- ------- -------|------- ------- ------- -------|
B|-------------------------------|-------------------------------|
G|-------------------------------|-------------------------------|
D|-------------------------------|-------------------------------|
A10--10--10--10--10--10--10--10--12--12--12--12--12--12--12--12-\|
E|8---8---8---8---8---8---8---8--10--10--10--10--10--10--10--10-\|
      I   wanna   follow      the rivers                  To  an  

  G5              Gmaj7           E5
e|------- ------- ------- -------|------- ------- ------- -------|
B|-------------------------------|-------------------------------|
G|-------------------------------|-------------------------------|
D|-------------------------------|-------------------------------|
A|5---5---5---5---5---5---5---5--|2---2---2---2---2---2---2---2--|
E|3---3---3---3---2---2---2---2--|0---0---0---0---0---0---0---0--|
  island          in      the     sun  
 
  C5                              D5
e|------- ------- ------- -------|------- ------- ------- -------|
B|-------------------------------|-------------------------------|
G|5---5--------------------------|7---7--------------------------|
D|5---5--------------------------|7---7--------------------------|
A|3---3--------------------------|5---5--------------------------|
E|-------------------------------|-------------------------------|
          Now I'm living on   the run     Looking out for number 
[ Tab from: http://www.guitartabs.cc/tabs/s/sweetnam_skye/number_one_tab.html ]
  G5              D5              E5              C5    
e|------- ------- ------- -------|------- ------- ------- -------|
B|-------------------------------|-------------------------------|
G|-------------------------------|-------------------------------|
D|5-------5----/-12------12----/-14------14----\-10------10------|
A|5-------5----/-12------12----/-14------14----\-10------10------|
E|3-------3----/-10------10----/-12------12----\--8-------8------|
  One             day                     you'll  see     me     

  G5              D5              E5              C5      D5
e|------- ------- ------- -------|------- ------- ------- -------|
B|-------------------------------|-------------------------------|
G|-------------------------------|-------------------------------|
D|5-------5----/-12------12----/-14------14----\-10------12------|
A|5-------5----/-12------12----/-14------14----\-10------12------|
E|3-------3----/-10------10----/-12------12----\--8------10------|
          But     only            when    you're  dreaming

  G5              D5              E5              C5    
e|------- ------- ------- -------|------- ------- ------- -------|
B|-------------------------------|-------------------------------|
G|-------------------------------|-------------------------------|
D|5-------5----/-12------12----/-14------14----\-10------10------|
A|5-------5----/-12------12----/-14------14----\-10------10------|
E|3-------3----/-10------10----/-12------12----\--8-------8------|
  One             day                     you'll  say     I 

  G5              D5               
e|------- ------- ------- -------|
B|-------------------------------|
G|-------------------------------|
D|5-------5------12------12------|
A|5-------5------12------12------|
E|3-------3------10------10------|
  was             the 

  C5
e|------- ------- ------- -------|------- ------- ------- -------|
B|-------------------------------|-------------------------------|
G|-------------------------------|-------------------------------|
D10------10------10------10------10------10------10------10------|
A10------10------10------10------10------10------10------10------|
E|8-------8-------8-------8------|8-------8-------8-------8------|
  one
 (One)                                                 
  A5                              F5
e|------- ------- ------- -------|------- ------- ------- -------|
B|-------------------------------|-------------------------------|
G|-------------------------------|-------------------------------|
D|7---7--------------------------|3---3--------------------------|
A|7---7--------------------------|3---3--------------------------|
E|5---5--------------------------|1---1--------------------------|
          Late at night                  Trying to fight

  C5
e|------- ------- ------- -------|------- ------- ------- -------|
B|-------------------------------|-------------------------------|
G|-------------------------------|-------------------------------|
D10------10------10------10------10------10------10------10------|
A10------10------10------10------10------10------10------10------|
E|8-------8-------8-------8------|8-------8-------8-------8------|
          I       just    might   think   about           him

  A5                              F5
e|------- ------- ------- -------|------- ------- ------- -------|
B|-------------------------------|-------------------------------|
G|-------------------------------|-------------------------------|
D|7---7--------------------------|3---3----------------------10-/|
A|7---7--------------------------|3---3----------------------10-/|
E|5---5--------------------------|1---1-----------------------8-/|
          Right now I'm                   feeling fine

  D5
e|------- ------- ------- -------|------- ------- ------- -------|
B|-------------------------------|-------------------------------|
G|-------------------------------|-------------------------------|
D12------12------12------12------12------12------12------12------|
A12------12------12------12------12------12------12------12------|
E10------10------10------10------10------10------10------10------|
          I'm     better          off     without         him

  G5              Gmaj7           E5
e|------- ------- ------- -------|------- ------- ------- -------|
B|-------------------------------|-------------------------------|
G|-------------------------------|-------------------------------|
D|-------------------------------|-------------------------------|
A|5---5---5---5---5---5---5---5--|2---2---2---2---2---2---2---2--|
E|3---3---3---3---2---2---2---2--|0---0---0---0---0---0---0---0--|

e|------- ------- ------- -------|------- ------- ------- -------|
B|-------------------------------|-------------------------------|
G|-------------------------------|-------------------------------|
D|-------------------------------|-------------------------------|
A|--------2---------------2------|--------2-------2---3---2---0--|
E|3---3-------3---2---2-------2--|0---0-------0------------------|


  G5              Gmaj7           E5
e|------- ------- ------- -------|------- ------- ------- -------|
B|-------------------------------|-------------------------------|
G|-------------------------------|-------------------------------|
D|-------------------------------|-------------------------------|
A|5---5---5---5---5---5---5---5--|2---2---2---2---2---2---2---2--|
E|3---3---3---3---2---2---2---2--|0---0---0---0---0---0---0---0--|

e|------- ------- ------- -------|------- ------- ------- -------|
B|-------------------------------|-------------------------------|
G|-------------------------------|-------------------------------|
D|-------------------------------|-------------------------------|
A|--------2---------------2------|--------2-------2---3---2---0--|
E|3---3-------3---2---2-------2--|0---0-------0------------------|


  G5              Gmaj7           E5
e|------- ------- ------- -------|------- ------- ------- -------|
B|-------------------------------|-------------------------------|
G|-------------------------------|-------------------------------|
D|-------------------------------|-------------------------------|
A|5---5---5---5---5---5---5---5--|2---2---2---2---2---2---2---2--|
E|3---3---3---3---2---2---2---2--|0---0---0---0---0---0---0---0--|

e|------- ------- ------- -------|------- ------- ------- -------|
B|-------------------------------|-------------------------------|
G|-------------------------------|-------------------------------|
D|----------------4---4---4---4--|2---2---2---4---2---2---2------|
A|--------2---5------------------|----------------------------2--|
E|3---3--------------------------|-------------------------------|


  G5              Gmaj7           E5
e|------- ------- ------- -------|------- ------- ------- -------|
B|-------------------------------|-------------------------------|
G|-------------------------------|-------------------------------|
D|-------------------------------|-------------------------------|
A|5---5---5---5---5---5---5---5--|2---2---2---2---2---2---2---2--|
E|3---3---3---3---2---2---2---2--|0---0---0---0---0---0---0---0--|

e|------- ------- ------- -------|------- ------- ------- -------|
B|-------------------------------|-------------------------------|
G|-------------------------------|-------------------------------|
D|----------------4---4---5---4--|2---2---2---4---2---2---2---2--|
A|--------2---5------------------|-------------------------------|
E|3---3--------------------------|-------------------------------|


  C5
e|------- ------- ------- -------|------- ------- ------- -------|
B|-------------------------------|-------------------------------|
G|-------------------------------|-------------------------------|
D10------10------10------10------10------10------10------10------|
A10------10------10------10------10------10------10------10------|
E|8-------8-------8-------8------|8-------8-------8-------8------|

e|------- ------- ------- -------|------- ------- ------- -------|
B|-------------------------------|-------------------------------|
G|9---9---9---9---9---9---9---9--|8---8---8---8---8---8---8---8--|
D|-------------------------------|-------------------------------|
A|7---7---7---7---7---7---7---7--|6---6---6---6---6---6---6---6--|
E|-------------------------------|-------------------------------|


  G5
e|------- ------- ------- -------|------- ------- ------- -------|
B|-------------------------------|-------------------------------|
G|-------------------------------|-------------------------------|
D|-------------------------------|-------------------------------|
A|5---5---5---5---5---5---5---5--|5---5---5---5---5---5---5---5--|
E|3---3---3---3---3---3---3---3--|3---3---3---3---3---3---3---3--|
  One             day


e|------- ------- ------- -------|------- ------- ------- -------|
B|-------------------------------|-------------------------------|
G|-------------------------------|-------------------------------|
D|-------------------------------|-------------------------------|
A|5---5---5---5---5---5---5---5--|5---5---5---5---5---5---5---5-4/
E|3---3---3---3---3---3---3---3--|3---3---3---3---3---3---3---3-2/
   One             day


e|------- ------- ------- -------|------- ------- ------- -------|
B|-------------------------------|-------------------------------|
G|-------------------------------|-------------------------------|
D|5---5---5---5---5---5---5---5--|5---5---5---5---5---5---5---5--|
A|5---5---5---5---5---5---5---5--|5---5---5---5---5---5---5---5--|
E|3---3---3---3---3---3---3---3--|3---3---3---3---3---3---3---3--|
   One             day


e|------- ------- ------- -------|------- ------- ------- -------|
B|-------------------------------|-------------------------------|
G|-------------------------------|-------------------------------|
D|5---5---5---5---5---5---5---5--|5---5---5---5---5---5---5---5--|
A|5---5---5---5---5---5---5---5--|5---5---5---5---5---5---5---5--|
E|3---3---3---3---3---3---3---3--|3---3---3---3---3---3---3---3--|
  You'll          say                     I       was     the


e|------- ------- ------- -------|
B|-------------------------------|
G|-------------------------------|
D|-------------------------------|
A|-------------------------------|
E|-------------------------------|
  one
 (One)
                  D5              E5              C5
e|------- ------- ------- -------|------- ------- ------- -------|
B|-------------------------------|-------------------------------|
G|-------------------------------|-------------------------------|
D|5-------5----/-12------12----/-14------14----\-10------10----\-|
A|5-------5----/-12------12----/-14------14----\-10------10----\-|
E|3-------3----/-10------10----/-12------12----\--8-------8----\-|
  One             day                     you'll  see     me     

  G5              D5              E5              C5      D5
e|------- ------- ------- -------|------- ------- ------- -------|
B|-------------------------------|-------------------------------|
G|-------------------------------|-------------------------------|
D|5-------5----/-12------12----/-14------14----\-10------12------|
A|5-------5----/-12------12----/-14------14----\-10------12------|
E|3-------3----/-10------10----/-12------12----\--8------10------|
          But     only            when    you're  dreaming

  G5              D5              E5              C5
e|------- ------- ------- -------|------- ------- ------- -------|
B|-------------------------------|-------------------------------|
G|-------------------------------|-------------------------------|
D|5-------5----/-12------12----/-14------14----\-10------10------|
A|5-------5----/-12------12----/-14------14----\-10------10------|
E|3-------3----/-10------10----/-12------12----\--8-------8------|
  One             day                     you'll  say     I 

  G5              D5
e|------- ------- ------- -------|
B|-------------------------------|
G|-------------------------------|
D|5-------5------12------12------|
A|5-------5------12------12------|
E|3-------3------10------10------|
  was             the 

  C5                                              D5
e|------- ------- ------- -------|------- ------- ------- -------|
B|-------------------------------|-------------------------------|
G|-------------------------------|-------------------------------|
D10------10------10------10------10------10------12------12------|
A10------10------10------10------10------10------12------12------|
E|8-------8-------8-------8------|8-------8------10------10------|
  one                                     I       know    that
 (One)
  G5              D5              E5              C5
e|------- ------- ------- -------|------- ------- ------- -------|
B|-------------------------------|-------------------------------|
G|-------------------------------|-------------------------------|
D|5-------5----/-12------12----/-14------14----\-10------10------|
A|5-------5----/-12------12----/-14------14----\-10------10------|
E|3-------3----/-10------10----/-12------12----\--8-------8------|
  One             day                     you'll  see     me     

  G5              D5              E5              C5      D5
e|------- ------- ------- -------|------- ------- ------- -------|
B|-------------------------------|-------------------------------|
G|-------------------------------|-------------------------------|
D|5-------5----/-12------12----/-14------14----\-10------12------|
A|5-------5----/-12------12----/-14------14----\-10------12------|
E|3-------3----/-10------10----/-12------12----\--8------10------|
          I'll    haunt   you     when    you're  dreaming         

  G5              D5              E5              C5
e|------- ------- ------- -------|------- ------- ------- -------|
B|-------------------------------|-------------------------------|
G|-------------------------------|-------------------------------|
D|5-------5----/-12------12----/-14------14----\-10------10------|
A|5-------5----/-12------12----/-14------14----\-10------10------|
E|3-------3----/-10------10----/-12------12----\--8-------8------|
  One             day                     you'll  say     I 

  G5              D5
e|------- ------- ------- -------|
B|-------------------------------|
G|-------------------------------|
D|5-------5------12------12------|
A|5-------5------12------12------|
E|3-------3------10------10------|
  was             the 

  C5
e|------- ------- ------- -------|------- ------- ------- -------|
B|-------------------------------|-------------------------------|
G|-------------------------------|-------------------------------|
D10------10------10------10------10------10------10------10------|
A10------10------10------10------10------10------10------10------|
E|8-------8-------8-------8------|8-------8-------8-------8------|
  one                                     I       was     the
 (One)

e|------- ------- ------- -------|------- ------- ------- -------|
B|-------------------------------|-------------------------------|
G|-------------------------------|-------------------------------|
D10------10------10------10------10------10------10------10------|
A10------10------10------10------10------10------10------10------|
E|8-------8-------8-------8------|8-------8-------8-------8------|
  one


e|------- ------- ------- -------|------- ------- ------- -------|
B|-------------------------------|-------------------------------|
G|-------------------------------|-------------------------------|
D|-------------------------------|-------------------------------|
A|----------------2-------3---2--|----------------2-------3---2--|
E|3---3---3---3-------3----------|3---3---3---3-------3----------|


e|------- ------- ------- -------|------- ------- ------- -------|
B|-------------------------------|-------------------------------|
G|-------------------------------|-------------------------------|
D|-------------------------------|5---5---5---5---5--------------|
A|----------------2-------3---2--|5---5---5---5---5--------------|
E|3---3---3---3-------3----------|3---3---3---3---3--------------|







        B  Bend
        R  Release
        /  Slide up
        \  Slide down
        H  Hammer-on
        P  Pull-off
        ~  Vibrato
        +  Harmonic
        x  Mute note
        .  Play note like a dot in standard notation
        ^  Ties two notes together
        (. Pause
Comments