Sweetnam Skye - It Sucks Live Chords & Tabs

 

It Sucks Live Chords & Tabs

Sweetnam Skye Chords & Tabs

Version: 1 Type: Tab 0 ratings
1 star 2 stars 3 stars 4 stars 5 stars
comments

It Sucks Live Tab

   
			     It Sucks(live) - Skye Sweetnam-
Tabbed by:Jeremy
Email:n2sed_182@yahoo.com

Tuning: tune down 1/2 step to Eb-Ab-Db-Gb-Bb-eb in live version
but in album version, tuning is standard to D

Verses (It's just a simple kiss and/Found a lame excuse to call you)

Guitar 1 (Distorted)

      D         A          Em           G
e|----------|----------|----------|-------------|
B|----------|----------|----------|-------------|
G|----7(x2)-|----------|---9(x2)--|-------------|
D|----7(x2)-|---7(x2)--|---9(x2)--|----5(x2)----|
A|----5(x2)-|---7(x2)--|---7(x2)--|----5(x2)----|
E|----------|---5(x2)--|----------|----3(x2)----|

Refrain (Goin' crazy for a week-Crazy for a week)

Guitar 1:

      Bm        D          A            G
e|----------|----------|----------|-------------|
B|----------|----------|----------|-------------|
G|----------|---7(x2)--|----------|-------------|
D|----9(x2)-|---7(x2)--|---7(x2)--|----5(x2)----|
A|----9(x2)-|---5(x2)--|---7(x2)--|----5(x2)----|
E|----7(x2)-|----------|---5(x2)--|----3(x2)----|

Guitar 2:

      Bm        D          A            G
e|---2------|---2------|----------|-----------------------------|
B|---2------|---3------|----------|-----------------------------|
G|---4------|---2------|----------|-----------------------------|
D|---4------|---0------|--4(x2)--2|-----------------------------|
A|---2------|---x------|----------|--5----5----5----5----5----5-|
E|---x------|---x------|----------|----2h3--2h3--2h3--2h3--2h3--|

Chorus: Guitar 1

(It's so frustrating)

      D         A          Em           G
e|----------|----------|----------|-------------|
B|----------|----------|----------|-------------|
G|----7(x2)-|----------|---9(x2)--|-------------|
D|----7(x2)-|---7(x2)--|---9(x2)--|----5(x2)----|  (x3)
A|----5(x2)-|---7(x2)--|---7(x2)--|----5(x2)----|
E|----------|---5(x2)--|----------|----3(x2)----|
[ Tab from: http://www.guitartabs.cc/tabs/s/sweetnam_skye/it_sucks_live_tab.html ]
(It sucks 'cause I wanna be with you)
      D         A            G
e|----------|----------|-------------|
B|----------|----------|-------------|
G|----7(x2)-|----------|-------------|
D|----7(x2)-|---7(x2)--|---5(x2)-----|
A|----5(x2)-|---7(x2)--|---5(x2)-----|
E|----------|---5(x2)--|---3(x2)-----|

Guitar 2

      G
e|-------------------------------|
G|-------------------------------|
D|-------------------------------|
A|--5----5----5----5----5----5---|
E|---2h3--2h3--2h3--2h3--2h3-----|

Bridge:

Guitar 1:


e|--------------|
B|----7-8-7-----|
G|--7-----------|  (x4)
D|--------------|
A|--------------|
E|--------------|


Guitar 2:

      Bm        D          A            G
e|---2------|---2------|----------|-----------------------------|
B|---2------|---3------|----------|-----------------------------|
G|---4------|---2------|----------|-----------------------------|
D|---4------|---0------|--4(x2)--2|-----------------------------|
A|---2------|---x------|----------|--5----5----5----5----5----5-|
E|---x------|---x------|----------|----2h3--2h3--2h3--2h3--2h3--|

It's just a simple kiss and
No one has to ever know
What she doesn't know won't
hurt her
As long as I don't let it show
we'll keep it just between us
Bottled up inside
Just our little secret
Always playin' dumb and acting shy

Goin' crazy for a week-Crazy for a week
Your Girlfriend's gonna freak-she's gonna freak
Because I know that I'd be freakin' too
'Cause that's the thing girlfriends do

It's so frustrating
You're not the type that I should be dating
No matter where I go
what I do
It sucks 'cause I wanna be with you

Found a lame excuse to call you
Just to hear your on the phone
Talkeda million miles an hour
Pretending we were all alone
And if only for a moment
It felt like you were really mine
But no one wants a cheater
Even if the boy is fine

Goin' crazy for a week-Crazy for a week
Your Girlfriend's gonna freak-she's gonna freak
Because I know that I'd be freakin' too
'Cause that's the thing girlfriends do

It's so frustrating
You're not the type that I should be dating
No matter where I go
or What i do
It sucks 'cause I wanna be with you
It's so frustrating
You're not the type that I should be dating
No matter where I go
Or what I do
It sucks 'cause I wanna be with you
Its so frustrating
your not the type that i should be dating
no matter where i go
or what i do it sucks couse i want to be with you
Comments