Sweetnam Skye - Fallen Through Acoustic Chords & Tabs

 

Fallen Through Acoustic Chords & Tabs

Sweetnam Skye Chords & Tabs

Version: 1 Type: Tab 0 ratings
1 star 2 stars 3 stars 4 stars 5 stars
comments

Fallen Through Acoustic Tab

   
Fallen Through - Skye Sweetnam (Acoustic)
-----------------------------------------
jen@ssweetnam.net

Comments/questions/changes are welcome. Enjoy (Definitely one of Skye's top songs)

Standard Tuning (to play with cd version capo on 1st fret)

Intro

E|---------------------------------------------|
B|-------2----------2----------2---------------|
G|-----2----2-----2----2-----2----2------------|
D|---4----------4----------2-------------------|
A|------------5----------0---------------------|
E|-2---------------------------------4--4--5-4-| x2
 
Verse (I do what he says...)

E|---------------------------------------------|
B|-------2----------2----------2---------------|
G|-----2----2-----2----2-----2----2------------|
D|---4----------4----------2-------------------|
A|------------5----------0---------------------|
E|-2---------------------------------4--4--5-4-| x3

E|---------------------------------------------|
B|-------2----------2----------3------5----3---|
G|-----2----2-----2----2-----2----2------------|
D|---4----------4----------0-------------------|
A|-2----------2----------0---------------------|
E|---------------------------------------------|
[ Tab from: http://www.guitartabs.cc/tabs/s/sweetnam_skye/fallen_through_acoustic_tab.html ]
(Seeps in undeneath the door...)
         F#m       Dsus2       A
E|-------2-2--------0-0--------0-0--------------|
B|-------2-2--------3-3--------2-2--------------|
G|-------2-2--------2-2--------2-2--------------|
D|-------4-4--0-0-0-0-0-0------2-2--------------|
A|-------4-4-------------0-0-0-0-0--------------|
E|-2-2-2-2-2------------------------4-4-4-5-5-4-| x3

E|---------------------------------------------|
B|-------2----------2----------3----------3----|
G|-----2----2-----2----2-----2----2-----2----2-| 
D|---4----------4----------0----------0--------|
A|-2----------2----------0----------0----------|
E|---------------------------------------------| 

E|---------------------------------------------|
B|-------2----------2----------3------5----3---|
G|-----2----2-----2----2-----2----2------------|
D|---4----------4----------0-------------------|
A|-2----------2----------0---------------------|
E|---------------------------------------------| x2

Chorus (Fallen through/why did i fall for you...)

   F#m  Dsus2  A     E
E|-2-----0-----0-----0---|
B|-2-----3-----2-----0---|
G|-2-----2-----2-----1---|
D|-4-----0-----2-----2---|
A|-4-----------0-----2---|
E|-2-----------------0---| x3

(...holding on by the last...) - on 'thread' start picking Intro/Verse
   Dsus2     
E|-0----------4---|
B|-3----------6---|
G|-2----------6---|
D|-0----------6---|
A|------------4---|
E|----------------| 

Order
-----
Intro
Verse
Chorus
Verse
Chorus x3
Comments