Sweet - Wig Wam Bam Chords & Tabs

 

Wig Wam Bam Chords & Tabs

Sweet Chords & Tabs

Version: 2 Type: Tab 0 ratings
1 star 2 stars 3 stars 4 stars 5 stars
comments

Wig Wam Bam Tab

Ok if you are looking at this tab you are one of the few who realize how great the band
sweet is!!!! they stayed in europe mostly so over here in north america we dont know them
much. but anyways.. there arent many tabs out there for them. i found one of this song on
another site, and i figured its an easy song ill make up my own tab and send it in here.
by the by, you play this exactly to the recording, line for line.. listen to the
recording to figure out the timing, you can decide to palm mute some parts of the verses
if it sounds better. anyway hope you enjoy this tab !!!!

any questions, coments or improvements i would be more than happy to chat about them,
you can get me at ben_jamin401@hotmail.com

Intro
-----------------------------------------------------------------------------|
-----------------------------------------------------------------------------|
-x----x----x----x----8/9-99-8/9-99-8/9-99-8/9-99-8/9-99-8/9-99-8/9-99-8/9-99-|
-9----9----9----9----8/9-99-8/9-99-8/9-99-8/9-99-8/9-99-8/9-99-8/9-99-8/9-99-|
-7777-7777-7777-7777-6/7-77-6/6-66-6/7-77-6/7-77-6/7-77-6/7-77-6/7-77-6/7-77-|
-----------------------------------------------------------------------------|

Verse
-----------------------------------------------------------------------------|
-----------------------------------------------------------------------------|
-------9-----9-----------------9-----9---------------------------------------|
-77-9--9-----9-----7-----9-----9-----9-----77-9------------------------------|
-77-9--7-777-7-777-7-----9-----7-777-7-777-77-9------------------------------|
-55-7--------------5-555-7-777-------------55-7------------------------------|

-----------------------------------------------------------------------------|
-----------------------------------------------------------------------------|
-----------------------------------------------------------------------------|
-6/7-----6/7-----6/7-----6/7-----8/9-----8/9-----8/9-----8/9-----------------|
-6/7-----6/7-----6/7-----6/7-----8/9-----8/9-----8/9-----8/9-----------------|
-4/5-555-4/5-555-4/5-555-4/5-555-6/7-777-6/7-777-6/7-777-6/7-777-------------|

Chorus
-----------------------------------------------------------------------------|
-----------------------------------------------------------------------------|
-9---------------9---------------9-------------------------------------------|
-9----7----9-----9----7----9-----9----7----9---------------------------------|
-7----7----9-----7----7----9-----7----7----9---------------------------------|
------5----7----------5----7----------5----7---------------------------------|

-----------------------------------------------------------------------------|
-----------------------------------------------------------------------------|
-------------------------------------------------1---------------------------|
-6/7-----6/7-----6/7-----6/7-----8/9-----8/9-----2---------------------------|
-6/7-----6/7-----6/7-----6/7-----8/9-----8/9-----2---------------------------|
-4/5-555-4/5-555-4/5-555-4/5-555-6/7-777-6/7-777-0---------------------------|
[ Tab from: http://www.guitartabs.cc/tabs/s/sweet/wig_wam_bam_tab_ver_2.html ]
Verse
-----------------------------------------------------------------------------|
-----------------------------------------------------------------------------|
---------9-----9-----------------9-----9-------------------------------------|
-9-77-9--9-----9-----7-----9-----9-----9-----77-9----------------------------|
-9-77-9--7-777-7-777-7-----9-----7-777-7-777-77-9----------------------------|
-7-55-7--------------5-555-7-777-------------55-7----------------------------|

-----------------------------------------------------------------------------|
-----------------------------------------------------------------------------|
-----------------------------------------------------------------------------|
-6/7-----6/7-----6/7-----6/7-----8/9-----8/9-----8/9-----8/9-----------------|
-6/7-----6/7-----6/7-----6/7-----8/9-----8/9-----8/9-----8/9-----------------|
-4/5-555-4/5-555-4/5-555-4/5-555-6/7-777-6/7-777-6/7-777-6/7-777-------------|

Bridge
-(guitar one)----------------------------------------------------------------|
-----------------------------------------------------------------------------|
-----------------------------------------------------------------------------|
-----------------------------------------------------------------------------|
-2-4-2---2----2-4-2--------2-4-2---2----2-4-2--------------------------------|
-------3------------3-0----------3------------3-0----------------------------|

-(guitar two)---------------------------------------------------------------|
----------------------------------------------------------------------------|
--------------9-------------------------9-----------------------------------|
-9------------9------------9------------9-----------------------------------|
-9------------7------------9------------7-----------------------------------|
-7-------------------------7------------------------------------------------|

-(guitar one)---------------------------------------------------------------|
----------------------------------------------------------------------------|
-10/11----10/11----10/11----10/11-------------------------------------------|
-10/11----10/11----10/11----10/11-------------------------------------------|
--8/9-999--8/9-999--8/9-999--8/9-999----------------------------------------|
----------------------------------------------------------------------------|

Verse with drums only

Verse (watch out they change keys here)
----------------------------------------------------------------------------|
----------------------------------------------------------------------------|
-44-6--3/4-----3/4-----3/4-----3/4-----5/6-----5-/6-----5/6-----5/6---------|
-44-6--3/4-----3/4-----3/4-----3/4-----5/6-----5-/6-----5/6-----5/6---------|
-22-4--1/2-222-1/2-222-1/2-222-1/2-222-3/4-444-3-/4-444-3/4-444-3/4-444-----|
----------------------------------------------------------------------------|

Chorus
----------------------------------------------------------------------------|
----------------------------------------------------------------------------|
-11----4----6-----11----4----6-----11----4----6-----------------------------|
-11----4----6-----11----4----6-----11----4----6-----------------------------|
--9----2----4------9----2----4------9----2----4-----------------------------|
----------------------------------------------------------------------------|

----------------------------------------------------------------------------|
----------------------------------------------------------------------------|
-3/4-----3/4-----3/4-----3/4-----5/6-----5/6--------------------------------|
-3/4-----3/4-----3/4-----3/4-----5/6-----5/6--------------------------------|
-1/2-222-1/2-222-1/2-222-1/2-222-3/4-444-3/4-444----------------------------|
----------------------------------------------------------------------------|

Repeat last chorus desired number of times and fade out.
Comments