Sweet - Little Willy Chords & Tabs

 

Little Willy Chords & Tabs

Sweet Chords & Tabs

Version: 1 Type: Bass Tab 0 ratings
1 star 2 stars 3 stars 4 stars 5 stars
comments

Little Willy Bass Tab

Main Riff:


    Little     Willy,    Willy wont         go         home

G|--0----0------------------------|----------------------0---------|
D|-------------0----0----2---2--0-|---------4----------------------|
A|--------------------------------|--------------------------------|
E|--------------------------------|--------------------------------|


  But you cant push  Willy    round   Willy       wont      go
[ Tab from: http://www.guitartabs.cc/tabs/s/sweet/little_willy_btab.html ]
G|--0---0---0---0---4----2----0---|---2----0----------------0------|
D|--------------------------------|----------------4---------------|
A|--------------------------------|--------------------------------|
E|--------------------------------|--------------------------------|


   Try  tellin  everybody     but            oh            no

G|--4---5---4--2---0---2--0-------|---------------2--------0-------|
D|---------------------------4--2-|------0-------------------------|
A|--------------------------------|--------------------------------|
E|--------------------------------|--------------------------------|


  Little  Willy   Willy wont go home 

G|--0---0-------------------2--0--|--------------------------------|
D|---------0---0---2--2--0--------|--------------------------------|
A|--------------------------------|--------------------------------|
E|--------------------------------|--------------------------------|
Comments