Sweatshop Union - The Thing About It Chords & Tabs

 

The Thing About It Chords & Tabs

Sweatshop Union Chords & Tabs

Version: 1 Type: Tab 0 ratings
1 star 2 stars 3 stars 4 stars 5 stars
comments

The Thing About It Tab

This is the solo I tabbed out, it's not perfect, I know, but it's at least 90%. Cheers
to the only rap group I know who have a guitar solo in one of their songs :) Any
comments, corrections or if you're just bored and feel like emailing somebody, I'm at
it_wasnt_me_3@hotmail.com


e------------------------------------------------------------------------------------|
B-------8-10-10-10-10--8----------------------------5-6-5---5------------------------|
G--9-10-------------------10-9-7-7-7-----------5-7--------7---7p5h7------------------|
D----------------------------------------5-7-8---------------------------------------|
A------------------------------------------------------------------------------------|
E------------------------------------------------------------------------------------|

e-----8---------------------------5-6-8-6-5-5---5--------8-8-8-6-6-6-5-5-------------|
B--8b---r8-6-8-6---6-8----------8-------------6---6----------------------------------|
G----------------7-------------------------------------------------------------------|
D------------------------------------------------------------------------------------|
A------------------------------------------------------------------------------------|
E------------------------------------------------------------------------------------|
[ Tab from: http://www.guitartabs.cc/tabs/s/sweatshop_union/the_thing_about_it_tab.html ]
e-13-12-10-8---12-10-8-6---10-8-6-5---8-6-5-3---6-5-3-1---3-1-0-----0-1-0------------|
B---------------------------------------------------------------3---------1-3--------|
G------------------------------------------------------------------------------------|
D------------------------------------------------------------------------------------|
A------------------------------------------------------------------------------------|
E------------------------------------------------------------------------------------|

e--------------8-5--12-10-8-5-5-5-----1h3p1--------3/4-3-----------------------------|
B------5-6--8-------------------------------3----------------------------------------|
G--5-7-------------------------------------------------------------------------------|
D------------------------------------------------------------------------------------|
A------------------------------------------------------------------------------------|
E------------------------------------------------------------------------------------|

e-3-5-6-8-6-5-------------------------------------------------------------------------|
B-------------6-6-----3/5-6--3--/9-8--------------------------------------------------|
G------------------------------------------------------(The rest is-------------------|
D-------------------------------------------------------------inaudible)--------------|
A-------------------------------------------------------------------------------------|
E-------------------------------------------------------------------------------------|
Comments