Swayze Patrick - Shes Like The Wind Chords & Tabs

 

Swayze Patrick Chords & Tabs

Version: 1 Type: Tab 0 ratings
1 star 2 stars 3 stars 4 stars 5 stars
comments

Shes Like The Wind Tab

   
DIRTY DANCING - She's Like The Wind
=====================================

[#######################]
[#  Tabbed by Rinceā„¢   #]
[#   For You, Babsy    #]
[#######################]


Standart tunning.




===================================================================================================
===================================================================================================

Piano intro + verse: 
                                                                           
E||--3--0-----2----3------|--3--0-----2----3------|--3--0-----2----3------|--3--0-----2----3------|
B||--------1--------------|--------1--------------|--------0--------------|--------0--------------|
G||-----------------------|-----------------------|-----------------------|-----------------------|
D||-----------------------|-----------------------|-----------------------|-----------------------|
A||-----------------------|-----------------------|-----------------------|-----------------------|
E||-----------------------|-----------------------|-----------------------|-----------------------|

Guitar:

     C     Em      Am     D 
E||--3---|--7---|--0---|--5---|
B||--5---|--8---|--1---|--7---|
G||--5---|--9---|--2---|--7---|
D||--5---|--9---|--2---|--7---|
A||--3---|--7---|--0---|--5---|
E||------|--0---|--0---|------|

===================================================================================================
===================================================================================================



VERSE:

C                               Em 
She's like the wind throught my tree
C			    Em	
She rides the night next to me
C			 				 Em
She leads me throught moonlight only to burn me with the sun
C						      Em
She's taken my heart, but she doesn't know what she's done




PRE:

Piano part goes:

|--0----------------|--3-------------------|--5----------------|--5------------------|
|--1----------------|-----5----------------|--7----------------|-----7---------------|
|--2----------------|--------5-------------|--7----------------|--------7------------|
|--2----------------|-----------5----------|--7----------------|-----------7---------|
|--0----------------|----------------------|--5----------------|---------------------|
|-------------------|----------------------|-------------------|---------------------|


         Am 
Feel her breath on my face
         D 
Her body close to me
      Am  
Can't look in her eyes
      D
She's out of my league




CHORUS:
[ Tab from: http://www.guitartabs.cc/tabs/s/swayze_patrick/shes_like_the_wind_tab.html ]
Guitar:
                                                      v
|--3-----------------|--7--------5--------|---3---|---3---|
|--3-----------------|--8--------7--------|---5---|---5---|
|--4-----------------|--9--------7--------|---5---|---5---|
|--5--------4--------|--9--------7--------|---5---|---5---|
|--5--------5--------|--7--------5--------|---3---|---3---|
|--3--------2--------|--0-----------------|-------|-------|


Just a fool to believe
I have anything she needs...

		C
She's like the wind...



VERSE 2:

C              			Em
I look in the mirror and all I see
C		    		Em		
Is a Young old man with only a dream
C						Em
Am I just fooling myself, that she'll stop the pain?
C			  Em
Living without her I'd go insane




PRE:

Piano part goes:

|--0----------------|--3-------------------|--5----------------|--5------------------|
|--1----------------|-----5----------------|--7----------------|-----7---------------|
|--2----------------|--------5-------------|--7----------------|--------7------------|
|--2----------------|-----------5----------|--7----------------|-----------7---------|
|--0----------------|----------------------|--5----------------|---------------------|
|-------------------|----------------------|-------------------|---------------------|


         Am 
Feel her breath on my face
         D 
Her body close to me
      Am  
Can't look in her eyes
      D
She's out of my league




CHORUS:

Guitar:
                                                      v
|--3-----------------|--7--------5--------|---3---|---3---|
|--3-----------------|--8--------7--------|---5---|---5---|
|--4-----------------|--9--------7--------|---5---|---5---|
|--5--------4--------|--9--------7--------|---5---|---5---|
|--5--------5--------|--7--------5--------|---3---|---3---|
|--3--------2--------|--0-----------------|-------|-------|


Just a fool to believe
I have anything she needs...

		C
She's like the wind...




BRIDGE:

Guitar:

|------------------|------------------|------------------|
|------------------|------------------|------------------|
|----5---------5---|--------7---------|---9--------------|
|----5---------5---|--------7---------|---9--------------|
|----3---------3---|--------5---------|---7--------------|
|------------------|------------------|------------------|



LAST CHORUS + OUTRO:

Guitar:

|--3-----------------|--7--------5--------|---3-------|----------|
|--3-----------------|--8--------7--------|---5-------|----------|	Repeat till 
|--4-----------------|--9--------7--------|---5----4--|---2---7--|	fade out...
|--5--------4--------|--9--------7--------|---5----4--|---2---5--|	...	
|--5--------5--------|--7--------5--------|---3----2--|---0---5--|	..
|--3--------2--------|--0-----------------|-----------|----------|	.



Feel Your breath on my face
Your body close to me
Can't look in Your eyes
You're out of my league

Comments