Swan Lee - Walk With Me Chords & Tabs

 

Walk With Me Chords & Tabs

Swan Lee Chords & Tabs

Version: 1 Type: Tab 0 ratings
1 star 2 stars 3 stars 4 stars 5 stars
comments

Walk With Me Tab

   
-------------------------------------------------------------------------------
			     Walk with me - Swan Lee
-------------------------------------------------------------------------------
Tabbed by: Per Budtz-Jørgensen	
Email: budtz38@hotmail.com

Tuning: EADGBe

INTRO (2 times):

Fm     /Fm   C7/g     
Fm     /Fm            


VERSE:

        Fm	      Eb		 Fm		Fm
Do you sigh when you heart beats out for me?
	Fm	    Eb7		 Ab		Ab
Do you feel when I touch you tenderly?
        Db	  Eb            C/g	C7
With a vow of my love, fly with me up above.
           Fm		  Eb		     Fm		Fm
Don't you sigh when your heart beats out for me.


CHORUS:

  Eb7sus4	  Fm
e|---------------------------------------------------------------------------|
B|9-------9-------9----------9-----------------------------------------------|
G|6---6-----6---6-10----10-----10----10--------------------------------------|
D|8-8---------8---10-10-----------10-----------------------------------------|
A|6-----6---------8--------8-------------------------------------------------|
E|---------------------------------------------------------------------------|
  Do 		  you
  Soft		  like

  Dbmaj7	       Bbm6/Db
e|---------------------------------------------------------------------------|
B|----------9--------------------8-------------------------------------------|
G|-----10-----10----10-----10------10---10-----------------------------------|
D|--10-----------10------8------------8--------------------------------------|
A|---------------------------------------------------------------------------|
E|9-------9------------9-------9---------------------------------------------|
  want		       me?
  vel-		       vet.

  Eb7sus4	  B		F#		      E
e|----------------------7-9--------------------------------------------------|
B|9-------9-----------7-----7-------------11------------------9--------------|
G|6---6-----6---6---8---------8------11------11----11-----9-----9---9--------|
D|8-8---------8-------------------11------------11------9---------9----------|
A|6-----6-----------------------9-------9-------------7-----7----------------|
E|----------------7----------------------------------------------------------|
  Do 		  you		know?
  Walk		  with		me.

2nd time end on:

Eb	/Eb	


END OF CHORUS 2:
[ Tab from: http://www.guitartabs.cc/tabs/s/swan_lee/walk_with_me_tab.html ]
  Eb7sus4	  B		F#		      Ab
e|----------------------7-9--------------------------------------------------|
B|9-------9-----------7-----7-------------11----------------------13---------|
G|6---6-----6---6---8---------8------11------11----11-------13-------13----13|
D|8-8---------8-------------------11------------11-------13-------------13---|
A|6-----6-----------------------9-------9-------------11-------11------------|
E|----------------7----------------------------------------------------------|

  Bb
E|---------------------------------------------------------------------------|
B|------------15-------------------------------------------------------------|
G|------15-------15----15----------------------------------------------------|
D|---15-------------15-------------------------------------------------------|
A|13-------13----------------------------------------------------------------|
E|---------------------------------------------------------------------------|

Continue playing these chords:

Fm	/Fm	/Ab	/Bb


LAST VERSE:

	Fm	      Eb	      Fm		Fm
Do you fear when you heart rules the night?
	Fm	    Eb		 Fm		Fm
Do you want every danger out of sight?
      Fm	    Eb		Fm	      Fm	
With this secret I hold only hearts that are bold.
	   Fm		  Eb		  Fm
Don't you fear when your heart rules the night.


CHORD SUGGESTIONS:

  Fm	 C7/g	 Eb(7)	  Ab      Db	 C/g	  C7   Eb7sus4  Dbmaj7 Bbm6/Db  
e|8-------x-------6-------4-------4-------x-------8-------6-------4-------3--|
B|9-------8-------8-------4-------6-------5-------8-------9-------6-------6--|
G|10------9-------8(6)----5-------6-------5-------9-------6-------5-------3--|
D|10------8-------8-------6-------6-------5-------8-------8-------6-------6--|
A|8-------10------6-------6-------4-------7-------10------6-------4-------4--|
E|------------------------4-----------------------8--------------------------|

  B       F#      E      Fm(2)    Bb
e|7-------9-------7-------1-------6------------------------------------------|
B|7-------11------9-------1-------6------------------------------------------|
G|8-------11------9-------1-------7------------------------------------------|
D|9-------11------9-------3-------8------------------------------------------|
A|9-------9-------7-------3-------8------------------------------------------|
E|7-----------------------1-------6------------------------------------------|


| /  slide up
| \  slide down
| h  hammer-on
| p  pull-off
| ~  vibrato
| +  harmonic
| x  Mute note
===============================================================================
Comments