Swan Lee - Lord Knows I Can Be Strong Chords & Tabs

 

Lord Knows I Can Be Strong Chords & Tabs

Swan Lee Chords & Tabs

Version: 1 Type: Tab 0 ratings
1 star 2 stars 3 stars 4 stars 5 stars
comments

Lord Knows I Can Be Strong Tab

   
-------------------------------------------------------------------------------
			     Lord knows I can be strong - Swan Lee
-------------------------------------------------------------------------------
Tabbed by: Per Budtz-Jørgensen
Email: budtz38@hotmail.com

Tuning: EADGBe

VERSE (capo 2nd fret):

  Dm6		       Am		    Dm6			 Am
e|----4--------------------2--------------------4--------------------2-------|
B|--3--------------------2--------------------3--------------------2---------|
G|4--------------------2--------------------4--------------------2-----------|
D|---------------------------------------------------------------------------|
A|2-----------------------------------------2--------------------------------|
E|---------------------2-----------------------------------------2-----------|

  Gm		  C7   F6		    Dm6			 A
e|----3--------------------2--------------------4----------------2-----------|
B|-----------------------0--------------------3------------------2-----------|
G|2--------------------2--------------------4--------------------3-----------|
D|--0------------------0-----------------------------------------4-----------|
A|----------------0-------------------------2--------------------4-----------|
E|0--------------------------------------------------------------2-----------|

1st verse:
[ Tab from: http://www.guitartabs.cc/tabs/s/swan_lee/lord_knows_i_can_be_strong_tab.html ]
Dm6		      Am
Dawn is breaking from neon
Dm6			    Am
All your leaves are burning brown
Gm	   C7  F6
I can wait for eons
      Dm6	        A
Until then, I will stay here

2nd verse:

Like a door that keeps revolving,
It will spin you round and round.
Some dady love will blind me
      Dm6	       A (1,2,3...)	
until then I will stay here 


CHORUS (in 3/4, as upposed to the verse which is in 4/4):

Am   C	G	 Dm7
Show me all your strength,
  C    G
I know you can
Am   C	G    Dm7	
save me from myself,
     C       F   G  Am 
Lord knows I can be strong.


CHORDS (capo 2nd fret):
Actual chords, (chords relative to capo)

Dm6(Hm6) Am(F#m)  Gm(Em)   F6(D6)    A(F#)    C(A)     G(E)   Dm7(Hm7)   F(D)
e|4--------2--------0--------2--------2--------0--------0--------2--------2--|
B|3--------2--------0--------0--------2--------2--------0--------3--------3--|
G|4--------2--------0--------2--------3--------2--------1--------2--------2--|
D|x--------4--------2--------0--------4--------2--------2--------4--------0--|
A|2--------4--------2-----------------4--------0--------2--------2-----------|
E|---------2--------0-----------------2-----------------0--------------------|


| /  slide up
| \  slide down
| h  hammer-on
| p  pull-off
| ~  vibrato
| +  harmonic
| x  Mute note
===============================================================================
Comments