Swan Lee - Dont Take My Love Chords & Tabs

 

Dont Take My Love Chords & Tabs

Swan Lee Chords & Tabs

Version: 1 Type: Tab 0 ratings
1 star 2 stars 3 stars 4 stars 5 stars
comments

Dont Take My Love Tab

   
-------------------------------------------------------------------------------
			     Don't take my love - Swan Lee		
-------------------------------------------------------------------------------
Tabbed by: Per Budtz-Jørgensen	
Email: budtz38@hotmail.com

Tuning: EADGBe


INTRO RIFF: (played twice with ad lib. variations):

  F#m7	          A		  Hm7*            Hm6*
e|---------------------------------------------------------------------------|
B|---------------------------------------------------------------------------|
G|---------------------------------------------------------------------------|
D|----4---2---4-------4---2---4-----0-4-0-2---4-----0-4-0-2---4--------------|
A|--4---2-------0---4---2-------0-2-------------2----------------------------|
E|2--------------------------------------------------------------------------|


VERSE (played four times):

F#m7	/A	/Hm7	/Hm7

Verse riff (played 3rd and 4th time):

e|---------------------------------------------------------------------------|
B|---------------------------------------------------------------------------|
G|---------------------------------------------------------------------------|
D|---------------------------------------------------------------------------|
A|--4-----4---4-----7-----7---7-----5-----5---5-----5-----4---4--------------|
E|2-----2---------5-----5---------5-----5---------5-----5--------------------|


CHORUS:

Hm7	/Hm7    /D	/D	/A	/A	/F#m	/F#m

Hm7	/Hm7    /D	/D	/A	/A	/E	/E

Chorus solo:
[ Tab from: http://www.guitartabs.cc/tabs/s/swan_lee/dont_take_my_love_tab.html ]
  Hm7		 Hm7		   D		  D		  A
e|--------------------------------------5-------------------------0----------|
B|10----9---7----------------7-----7--------7---------5-----------2----------|
G|7-7-------------7-----9------7---7-7--------7---6-7---7---6-4-2-2----------|
D|7---7-------------7-----7------7-7--7---------7-----------------2----------|
A|9-------------------9------------5------------------------------0----------|
E|7--------------------------------------------------------------------------|

  A		 F#m (from here on, play rhytmic pattern)
e|----------------2----------------------------------------------------------|
B|3---2-----------2----------------------------------------------------------|
G|2---2---------6-2----------------------------------------------------------|
D|2---2---4-6-7---2----------------------------------------------------------|
A|0---0-----------4----------------------------------------------------------|
E|----------------2----------------------------------------------------------|


DON'T TAKE MY LOVE:
Intro
Verse 1
Chorus
Intro
Verse 2
Chorus
Chorus (first half with guitar solo)
Intro


CHORDS:
  
  F#m7    A      Hm7*	 Hm6*	 Hm7	  D	  E
e|2-------5-------x-------x-------2-------2-------7---------------------------|
B|2-------5-------7-------7-------3-------3-------9---------------------------|
G|2-------6-------7-------7-------2-------2-------9---------------------------|
D|2-------7-------7-------6-------4-------0-------9---------------------------|
A|4-------7-------x-------x-------2---------------7---------------------------|
E|2-------5-------7-------7-----------------------0---------------------------|


| /  slide up
| \  slide down
| h  hammer-on
| p  pull-off
| ~  vibrato
| +  harmonic
| x  Mute note
===============================================================================
Comments