Sutherland Brothers And Quiver - Arms Of Mary Chords & Tabs

 

Arms Of Mary Chords & Tabs

Sutherland Brothers And Quiver Chords & Tabs

Version: 2 Type: Tab 0 ratings
1 star 2 stars 3 stars 4 stars 5 stars
comments

Arms Of Mary Tab

   
Arms of Mary
(Sutherland Brothers and Quiver)

Tabbed By Joe Blackie (22/6/2001) - joe@karaoke.karoo.co.uk

[Introduction Sequence]

The introduction sequence isn't exact, but it sounds excellent
when you perfect it. If anyone can help with the chords after the
key changes, then please send your corrections to me.

am = A minor    em = E minor

   (Use 'c' root cord)	   (Use 'g' root cord)

E-------------3-0----------------------------------------|
B-------1---------1---------------3-0--------------------|
G---------0---------0-------0---------0------------------|
D-----------------------------0---------0----------------|
A-------3------------------------------------------------|
E---------------------------3----------------------------|

(Use 'am' root cord) (Use 'f' bar cord)

E--------------------------------------------------------|
B------------1------------------------1------------------|
G---------2----2------------------2----2-----------------|
D------2----------2------------3----------3--------------|
A--0-0----------------0------3---------------------------|
E--------------------------------------------------------|


(c)             (g)
THE LIGHTS SHINE DOWN THE VALLEY
(c)            (f)
THE WIND BLOWS UP THE ALLEY
(c)
OH AND I WISH I WAS
(g)                 (c)
LYIN' IN THE ARMS OF MARY

[ Tab from: http://www.guitartabs.cc/tabs/s/sutherland_brothers_and_quiver/arms_of_mary_tab_ver_2.html ]
(c)          (g)
SHE TOOK THE PAINS OF BOYHOOD
(c)		(f)
AND TURNED THEM INTO FEEL GOOD
(c)
OH HOW I WISH I WAS
(g)		     (c)
LYIN' IN THE ARMS OF MARY


(c)          (em)
MARY WAS THE GIRL WHO TAUGHT ME
      (am)
ALL I HAD TO KNOW
	   (f)		       (g)
SHE PUT ME RIGHT ON MY FIRST MISTAKE
(g)          (em)
SUMMER WASN'T GONE
		      (am)
WHEN I LEARNED ALL SHE HAD TO SHOW
          (f)			(g)
SHE REALLY GAVE ALL A BOY COULD TAKE - WOAH


(c)	    (g)
SO NOW WHEN I GET LONELY
(c)		     (f)
STILL LOOKING FOR THE ONE AND ONLY
(c)
THAT'S WHEN I WISH I WAS
(g)		      (c)
LYIN' IN THE ARMS OF MARY


[Instrumental Break]


(c)         (em)
MARY WAS THE GIRL WHO TAUGHT ME
     (am)
ALL I HAD TO KNOW
	  (f)		       (g)
SHE PUT ME RIGHT ON MY FIRST MISTAKE
(g)          (em)
SUMMER WASN'T GONE
		      (am)
WHEN I LEARNED ALL SHE HAD TO SHOW
          (f)			(g)
SHE REALLY GAVE ALL A BOY COULD TAKE


[Key Change - Can Anyone Help!]


THE LIGHTS SHINE DOWN THE VALLEY
THE WIND BLOWS UP THE ALLEY
OH AND I WISH I WAS
LYIN' IN THE ARMS OF MARY
LYIN' IN THE ARMS OF MARY
LYIN' IN THE ARMS OF MARY
OOH OOH OOH

[Guitar Solo]
Comments