Susumu Hirasawa - White Hill Chords & Tabs

 

White Hill Chords & Tabs

Susumu Hirasawa Chords & Tabs

Version: 1 Type: Tab 0 ratings
1 star 2 stars 3 stars 4 stars 5 stars
comments

White Hill Tab

   
-------------------------------------------------------------------------------
      White Hill - Maromi's Theme - Paranoia Agent OST - Susumu Hirasawa
-------------------------------------------------------------------------------
Tabbed by:  Andrew Gidiere
Email:  m1dg3t@gmail.com
Please e-mail me with corrections/comments/etc.

Tuning:  Standard
Obviously all this is synth part translated to guitar.

Melody  (Listen for rhythm)

A

e|-----9------8-5----8-7------7-5---7----5------5-8-7--------9--5-------5----|
B|-10-----10------6------8-5------7---------6-8-------8-5-8-------5--5-(9)---|  
G|---------------------------------------------------------------------------|      
D|---------------------------------------------------------------------------|
A|---------------------------------------------------------------------------|
E|---------------------------------------------------------------------------|

The ninth fret second string is only on the ending in place of the fifth fret second string.

B

e|-5----8---------5----8-------------8--------8--7-10------------------------|
B|----8---8----------8---8------8--6---8--------------10---------------------|
G|---------------------------------------------------------------------------|
D|---------------------------------------------------------------------------|
A|---------------------------------------------------------------------------|
E|---------------------------------------------------------------------------|

A 2x
B 1x
A 1x

2nd Part
[ Tab from: http://www.guitartabs.cc/tabs/s/susumu_hirasawa/white_hill_tab.html ]
e|----9--------9------9------8------7------7------8------7-------9------9----|
B|-10-----10-------10-----------------------------------------10-----10------|
G|------9--------9------9-10---10-9---9-11---8-10------9-----------9---------|
D|--------------------------------------------------10------9----------------|
A|-----------0---------------------------------------------------------------|
E|---------------------------------------------------------------------------|

e|------9------8------7------7------8------7-------9------9------8------7----|
B|---10-----------------------------------------10-----10--------------------|
G|-9------9-10---10-9---9-11---8-10------9-----------9------9-10------9------|
D|------------------------------------10------9--------------------10--------|
A|---------------------------------------------------------------------------|
E|---------------------------------------------------------------------------|

e|------8------7------8-------8-----10------9------9--------9------9------8--|
B|------------------------------8-8------10-----10-----10-------10-----------|
G|-----------9-------------------------7------9------9--------9------9-10----|
D|-9-10---10-----9-10---10-10------------------------------------------------|
A|--------------------------------------------------------0------------------|
E|---------------------------------------------------------------------------|

e|------7------7------8------7-----------------------------------------------|
B|------------------------------------9--------------------------------------|
G|-10-9---9-11---8-10------9--------9----------------------------------------|
D|----------------------10------9-9------------------------------------------|
A|---------------------------------------------------------------------------|
E|---------------------------------------------------------------------------|


There's a synth bass part which I will be tabbing soon.
===============================================================================
Comments