Susperia - Home Sweet Hell Chords & Tabs

 

Home Sweet Hell Chords & Tabs

Susperia Chords & Tabs

Version: 1 Type: Tab 0 ratings
1 star 2 stars 3 stars 4 stars 5 stars
comments

Home Sweet Hell Tab

   
Band:  (SUSPERIA)
Album: (UNLIMITED)
Song:  (HOME SWEET HELL)

Copyright (c)  (NUCLEARBLAST) (2004)
Version 1.0 - (2004)

Transcribed By: (DIABOLO080)
Email:          (jorge_geografia2001@hotmail.com)


.  - palm mute           /  - slide up to
\  - slide down to       ~  - vibrato
h  - hammer on           b  - Bend
p  - pull off            Suffixes for bend
t  - tap                 f  - full bend    h - half bend
ph - pinched harmonic    q  - quarter bend t - tap bend
*  - see comment         ^  - Hold bend    r release bend
x  - Stuccatto           ~  - vibrato bend
,  - slight palm mute    () - ghost note, sustained note
"  - tremolo note        <> - Trill

Tunning D G C F A D


LEADER GUITAR (2 times)
|-------------------------------------------------------------------|
|-------------------------------------------------------------------|
|-------------------------------------------------------------------|
|----5-----5-------------4-----4---2-----2--------------------------|
|-------7----7--7--7--7-----5---------3-----------------------------|
|-------------------------------------------------------------------|
         PM  .  .  .

LEADER GUITAR (2 times with rythm)
|-------------------------------------------------------------------|
|-------------------------------------------------------------------|
|-------------------------------------------------------------------|
|----5-----5-------------4-----4---2-----2--------------------------|
|-------7----7--7--7--7-----5---------3-----------------------------|
|-------------------------------------------------------------------|
|        PM  .  .  .                                                |
|                                                                   |
RYTHM GUITAR                                                        |
|-------------------------------------------------------------------|
|-------------------------------------------------------------------|
|-------------------------------------------------------------------|
|----2-------------------7---------5--------------------------------|
|----2-------------------5---------3--------------------------------|
|----0--------------------------------------------------------------|


LEADER GUITAR (2 times with rythm)
|-------------------------------------------------------------------|
|-------------------------------------------------------------------|
|-------------------------------------------------------------------|
|----5-----5-------------4-----4---2-----2--------------------------|
|-------7----7--7--7--7-----5---------3-----------------------------|
|-------------------------------------------------------------------|
|        PM  .  .  .                                                |
|                                                                   |
RYTHM GUITAR                                                        |
|-------------------------------------------------------------------|
|-------------------------------------------------------------------|
|-------------------------------------------------------------------|
|------------------------7-7-7-7------5-5-5-5-----------------------|
|------------------------5-5-5-5------3-3-3-3-----------------------|
|----0-0-0-0--------------------------------------------------------|
  PM .......             .......      .......


LEADER GUITAR (4 times with rythm)
|-------------------------------------------------------------------|
|-------------------------------------------------------------------|
|---12------12------------------11------11------9------9------------|
|-------14------14--14--14--14------12------12-----10-----10--------|
|-------------------------------------------------------------------|
|-------------------------------------------------------------------|
|            PM  .   .   .                                          |
|                                                                   |
RYTHM GUITAR                                                       |
|-------------------------------------------------------------------|
|-------------------------------------------------------------------|
|-------------------------------------------------------------------|
|----------9--------9------9----------7------------5-------5--------|
|----------7--------7------7----5-5-5-5------3-3-3-3---3-3-3--------|
|----0-0-0----0-0-0----0-0------------------------------------------|
  PM .....    .....    ...      .....        .....     ...



VERSE BOTH GUITARS (4 times)
|-------------------------------------------------------------------|
|-------------------------------------------------------------------|
|-------------------------------------------------------------------|
|----------9--------9------9----------7------------5-------5--------|
|----------7--------7------7----5-5-5-5------3-3-3-3---3-3-3--------|
|----0-0-0----0-0-0----0-0------------------------------------------|
  PM .....    .....    ...      .....         .....    ...



LEADER GUITAR (4 times with rythm)
|-------------------------------------------------------------------|
|-------------------------------------------------------------------|
|---12------12------------------11------11------9------9------------|
|-------14------14--14--14--14------12------12-----10-----10--------|
|-------------------------------------------------------------------|
|-------------------------------------------------------------------|
|            PM  .   .   .                                          |
|                                                                   |
RYTHM GUITAR                                                        |
|-------------------------------------------------------------------|
|-------------------------------------------------------------------|
|-------------------------------------------------------------------|
|----------9--------9------9----------7------------5-------5--------|
|----------7--------7------7----5-5-5-5------3-3-3-3---3-3-3--------|
|----0-0-0----0-0-0----0-0------------------------------------------|
  PM .....    .....    ...      .....        .....     ...


[ Tab from: http://www.guitartabs.cc/tabs/s/susperia/home_sweet_hell_tab.html ]
VERSE BOTH GUITARS (4 times)
|-------------------------------------------------------------------|
|-------------------------------------------------------------------|
|-------------------------------------------------------------------|
|----------9--------9------9----------7------------5-------5--------|
|----------7--------7------7----5-5-5-5------3-3-3-3---3-3-3--------|
|----0-0-0----0-0-0----0-0------------------------------------------|
  PM .....    .....    ...      .....         .....    ...




CHORUS BOTH GUITARS (FIRST PART 2 times)
|---------------------------------|---------------------------------|
|---------------------------------|---------------------------------|
|-2-2-2-2-------------------------|-2-2-2-2-------------------------|
|-2-2-2-2--9-9-9---5-5-5-5--7-7-7-|-2-2-2-2--9-9-9---5-5-5-5--------|
|-0-0-0-0--7-7-7-0-3-3-3-3--5-5-5-|-0-0-0-0--7-7-7-0-3-3-3-3--5-5-5-|
|---------------------------------|---------------------------3-3-3-|


CHORUS BOTH GUITARS (SECOND PART 4 times)
|-------------------------------------------------------------------|
|-------------------------------------------------------------------|
|---2---2-----------------------------------------------------------|
|---2---2------9--9------10-10--------------------------------------|
|---0---0---0--7--7---0--8--8-------5-----6-------------------------|
|--------------------------------0--3--0--4--0----------------------|


CHORUS BOTH GUITARS (THIRD PART 2 times SAME AS FIRST)
|---------------------------------|---------------------------------|
|---------------------------------|---------------------------------|
|-2-2-2-2-------------------------|-2-2-2-2-------------------------|
|-2-2-2-2--9-9-9---5-5-5-5--7-7-7-|-2-2-2-2--9-9-9---5-5-5-5--------|
|-0-0-0-0--7-7-7-0-3-3-3-3--5-5-5-|-0-0-0-0--7-7-7-0-3-3-3-3--5-5-5-|
|---------------------------------|---------------------------3-3-3-|



LEADER GUITAR (4 times with rythm)
|-------------------------------------------------------------------|
|-------------------------------------------------------------------|
|---12------12------------------11------11------9------9------------|
|-------14------14--14--14--14------12------12-----10-----10--------|
|-------------------------------------------------------------------|
|-------------------------------------------------------------------|
|            PM  .   .   .                                          |
|                                                                   |
RYTHM GUITAR                                                        |
|-------------------------------------------------------------------|
|-------------------------------------------------------------------|
|-------------------------------------------------------------------|
|----------9--------9------9----------7------------5-------5--------|
|----------7--------7------7----5-5-5-5------3-3-3-3---3-3-3--------|
|----0-0-0----0-0-0----0-0------------------------------------------|
  PM .....    .....    ...      .....        .....     ...


VERSE BOTH GUITARS (4 times)
|-------------------------------------------------------------------|
|-------------------------------------------------------------------|
|-------------------------------------------------------------------|
|----------9--------9------9----------7------------5-------5--------|
|----------7--------7------7----5-5-5-5------3-3-3-3---3-3-3--------|
|----0-0-0----0-0-0----0-0------------------------------------------|
  PM .....    .....    ...      .....         .....    ...



CHORUS BOTH GUITARS (FIRST PART 2 times)
|---------------------------------|---------------------------------|
|---------------------------------|---------------------------------|
|-2-2-2-2-------------------------|-2-2-2-2-------------------------|
|-2-2-2-2--9-9-9---5-5-5-5--7-7-7-|-2-2-2-2--9-9-9---5-5-5-5--------|
|-0-0-0-0--7-7-7-0-3-3-3-3--5-5-5-|-0-0-0-0--7-7-7-0-3-3-3-3--5-5-5-|
|---------------------------------|---------------------------3-3-3-|


CHORUS BOTH GUITARS (SECOND PART 4 times)
|-------------------------------------------------------------------|
|-------------------------------------------------------------------|
|---2---2-----------------------------------------------------------|
|---2---2------9--9------10-10--------------------------------------|
|---0---0---0--7--7---0--8--8-------5-----6-------------------------|
|--------------------------------0--3--0--4--0----------------------|


CHORUS BOTH GUITARS (THIRD PART 2 times SAME AS FIRST)
|---------------------------------|---------------------------------|
|---------------------------------|---------------------------------|
|-2-2-2-2-------------------------|-2-2-2-2-------------------------|
|-2-2-2-2--9-9-9---5-5-5-5--7-7-7-|-2-2-2-2--9-9-9---5-5-5-5--------|
|-0-0-0-0--7-7-7-0-3-3-3-3--5-5-5-|-0-0-0-0--7-7-7-0-3-3-3-3--5-5-5-|
|---------------------------------|---------------------------3-3-3-|



INTERLUDE (4 times)
|-----------------------------------------------------------------------|
|-----------------------------------------------------------------------|
|-----------------------------------------------------------------------|
|----------------9----------------10----------------9-------------------|
|----------------7----------------8-----------------7---------------555-|
|--000--000--000----000--000--000-----000--000--000----000--000--00-333-|
PM ...  ...  ...    ...  ...  ...     ...  ...  ...    ...  ...  .......




THEN THE SOLO (I'm working on it)





AND THE FINAL RIFF (8 times)
|-------------------------------------------------------------------|
|-------------------------------------------------------------------|
|---5------5--------------4-----4-----2-----2-----------------------|
|------7------7--7--7--7-----5-----5-----3-----3--------------------|
|-------------------------------------------------------------------|
|-------------------------------------------------------------------|
|        PM   .  .  .                                               |
|                                                                   |
RYTHM GUITAR                                                        |
|-------------------------------------------------------------------|
|-------------------------------------------------------------------|
|-------------------------------------------------------------------|
|-------------------------------------------------------------------|
|-------7--------7------7---------5---------3------3----------------|
|-5-5-5-5--5-5-5-5--5-5-5---3-3-3-3---1-1-1-1--1-1-1----------------|
  .....    .....    ...     .....     .....    ...



END
Comments