Susperia - Chemistry Chords & Tabs

 

Chemistry Chords & Tabs

Susperia Chords & Tabs

Version: 2 Type: Tab 0 ratings
1 star 2 stars 3 stars 4 stars 5 stars
comments

Chemistry Tab

   
Band:  (SUSPERIA)
Album: (UNLIMITED)
Song:  (CHEMISTRY)

Copyright (c)  (NUCLEAR BLAST) (2004)
Version 1.0 - (2005)

Transcribed By: (DIABOLO080)
Email:          (jorge_geografia2001@hotmail.com)


.  - palm mute           /  - slide up to
\  - slide down to       ~  - vibrato
h  - hammer on           b  - Bend
p  - pull off            Suffixes for bend
t  - tap                 f  - full bend    h - half bend
ph - pinched harmonic    q  - quarter bend t - tap bend
*  - see comment         ^  - Hold bend    r release bend
x  - Stuccatto           ~  - vibrato bend
,  - slight palm mute    () - ghost note, sustained note
"  - tremolo note        <> - Trill



THE FIRST RIFF ITS A LITTLE HARD BUT WHIT PRACTICE YOU CAN STAND THE MECHANISM. GOOD LUCK.

I HOPE YOU ENJOY IT; TUNNING THE GUITAR ON "D"


Tunning D G C F A D



RIFF 1  6 times (lead guitar)

|--19-------20-------19-------17-------19-------20--------19-------17--------|
|-----17-------17-------17-------17-------17-------17--------17-------17-----|
|--------16-------16-------16-------16-------16--------16-------16-------16--|
|----------------------------------------------------------------------------|
|----------------------------------------------------------------------------|
|----------------------------------------------------------------------------|

|--15-------17-------15-------14-------10-----10-----14-------14-------------|
|-----13-------13-------13-------13-------8------8------12-------12----------|
|--------12-------12-------12-------12------7------7-------11-------11-------|
|----------------------------------------------------------------------------|
|----------------------------------------------------------------------------|
|----------------------------------------------------------------------------|



RIFF 1.1.  2 times (this is played by rhythm guitar after 2 times of riff 1)

|----------------------------|
|----------------------------|
|----------------------------|
|--9------5------------------|
|--7------3------5--------9--|
|----------------3--------7--|


RIFF 1.2.  2 times (after riff 1.1. the rhythm guitar plays like this)

|------------------------------------------------------|
|------------------------------------------------------|
|------------------------------------------------------|
|--9--9--9-9-9--9--9--9-9-9--9--9--9-9-9--9--9--9-9-9--|
|--7--7--7-7-7--7--7--7-7-7--7--7--7-7-7--7--7--7-7-7--|
|------------------------------------------------------|
         . . .        . . .        . . .        . . .

|------------------------------------------------------|
|------------------------------------------------------|
|------------------------------------------------------|
|--5--5--5-5-5--5--5--5-5-5----------------------------|
|--3--3--3-3-3--3--3--3-3-3--5--5--5-5-5--9--9--9-9-9--|
|----------------------------3--3--3-3-3--7--7--7-7-7--|
         . . .        . . .        . . .        . . .


RIFF 2  7 times (both guitars)

|--------------------------|
|--------------------------|
|--------------------------|
|-------h---7-----h----h---|
|--5-5-5-7----5--5-7--5-7--|
|--------------------------|



RIFF 2.1  1 time

|----------------------|
|----------------------|
|----------------------|
|----------------------|
|--5--7--------5--8-8--|
|--3--5--0--0--3--6-6--|
         .  .



RIFF 3 5 times (VERSE)


|--------------------------------------------------|
|--------------------------------------------------|
|--------------------------------------------------|
|-------h---7----h----h--------h----------h----h---|
|--5-5-5-7---5--5-7--5-7--5-5-5-7--8--5--5-7--5-7--|
|--------------------------------------------------|

|--------------------------------------------------|
|--------------------------------------------------|
|--------------------------------------------------|
|-------h--7-----h----h----------------------------|
|--5-5-5-7---5--5-7--5-7----5--7--------5--8-8-----|
|---------------------------3--5--0--0--3--6-6-----|
                                  .  .


RIFF 4  12 times (CHORUS)
[ Tab from: http://www.guitartabs.cc/tabs/s/susperia/chemistry_tab_ver_2.html ]
LEAD GUITAR
    h   h    h   h
|--8-5-8-5--8-5-8-5---h-h----h-h----h-h----h-h----|
|--------------------6-3-0--6-3-0--8-5-0--7-5-0---|
|-------------------------------------------------|
|-------------------------------------------------|
|-------------------------------------------------|
|-------------------------------------------------|
|RHYTHM GUITAR                                    |
|-------------------------------------------------|
|-------------------------------------------------|
|-------------------------------------------------|
|-------------------7-7-7-7-7-7-7--10101010101010-|
|--7-7-7-7-7-7-7-7--5-5-5-5-5-5-5--8-8-8-8-8-8-8--|
|--5-5-5-5-5-5-5-5--------------------------------|



RIFF 2  7 times (both guitars)

|--------------------------|
|--------------------------|
|--------------------------|
|-------h---7-----h----h---|
|--5-5-5-7----5--5-7--5-7--|
|--------------------------|



RIFF 2.1  1 time

|----------------------|
|----------------------|
|----------------------|
|----------------------|
|--5--7--------5--8-8--|
|--3--5--0--0--3--6-6--|
         .  .


RIFF 3  3 times (VERSE)

|--------------------------------------------------|
|--------------------------------------------------|
|--------------------------------------------------|
|-------h---7----h----h--------h----------h----h---|
|--5-5-5-7---5--5-7--5-7--5-5-5-7--8--5--5-7--5-7--|
|--------------------------------------------------|

|--------------------------------------------------|
|--------------------------------------------------|
|--------------------------------------------------|
|-------h--7-----h----h----------------------------|
|--5-5-5-7---5--5-7--5-7----5--7--------5--8-8-----|
|---------------------------3--5--0--0--3--6-6-----|
                                  .  .

RIFF 4  12 times (CHORUS)

LEAD GUITAR
    h   h    h   h
|--8-5-8-5--8-5-8-5---h-h----h-h----h-h----h-h----|
|--------------------6-3-0--6-3-0--8-5-0--7-5-0---|
|-------------------------------------------------|
|-------------------------------------------------|
|-------------------------------------------------|
|-------------------------------------------------|
|RHYTHM GUITAR                                    |
|-------------------------------------------------|
|-------------------------------------------------|
|-------------------------------------------------|
|-------------------7-7-7-7-7-7-7--10101010101010-|
|--7-7-7-7-7-7-7-7--5-5-5-5-5-5-5--8-8-8-8-8-8-8--|
|--5-5-5-5-5-5-5-5--------------------------------|



RIFF 1  4 times (lead guitar)

|--19-------20-------19-------17-------19-------20--------19-------17--------|
|-----17-------17-------17-------17-------17-------17--------17-------17-----|
|--------16-------16-------16-------16-------16--------16-------16-------16--|
|----------------------------------------------------------------------------|
|----------------------------------------------------------------------------|
|----------------------------------------------------------------------------|

|--15-------17-------15-------14-------10-----10-----14-------14-------------|
|-----13-------13-------13-------13-------8------8------12-------12----------|
|--------12-------12-------12-------12------7------7-------11-------11-------|
|----------------------------------------------------------------------------|
|----------------------------------------------------------------------------|
|----------------------------------------------------------------------------|




RIFF 1.1.  2 times (this is played by rhythm guitar under riff 1)

|----------------------------|
|----------------------------|
|----------------------------|
|--9------5------------------|
|--7------3------5--------9--|
|----------------3--------7--|



RIFF 1.2.  2 times (after riff 1.1. the rhythm guitar plays like this)

|------------------------------------------------------|
|------------------------------------------------------|
|------------------------------------------------------|
|--9--9--9-9-9--9--9--9-9-9--9--9--9-9-9--9--9--9-9-9--|
|--7--7--7-7-7--7--7--7-7-7--7--7--7-7-7--7--7--7-7-7--|
|------------------------------------------------------|
         . . .        . . .        . . .        . . .

|------------------------------------------------------|
|------------------------------------------------------|
|------------------------------------------------------|
|--5--5--5-5-5--5--5--5-5-5----------------------------|
|--3--3--3-3-3--3--3--3-3-3--5--5--5-5-5--9--9--9-9-9--|
|----------------------------3--3--3-3-3--7--7--7-7-7--|
         . . .        . . .        . . .        . . .



END
Comments