Susperia - Bitter Man Chords & Tabs

 

Bitter Man Chords & Tabs

Susperia Chords & Tabs

Version: 1 Type: Tab 0 ratings
1 star 2 stars 3 stars 4 stars 5 stars
comments

Bitter Man Tab

   
Band:  (SUSPERIA)
Album: (VINDICATION)
Song:  (THE BITTER MAN)

Copyright (c)  (NUCLEAR BLAST) (2002)
Version 1.0 - (2002)

Transcribed By: (DIABOLO080)
Email:          (jorge_geografia2001@hotmail.com)


.  - palm mute           /  - slide up to
\  - slide down to       ~  - vibrato
h  - hammer on           b  - Bend
p  - pull off            Suffixes for bend
t  - tap                 f  - full bend    h - half bend
ph - pinched harmonic    q  - quarter bend t - tap bend
*  - see comment         ^  - Hold bend    r release bend
x  - Stuccatto           ~  - vibrato bend
,  - slight palm mute    () - ghost note, sustained note
"  - tremolo note        <> - Trill

Tunning D G C F A D

6 TIMES
|-----------------|----------------|----------------|--------------- ----|
|-----------5---6-|----------6---5-|----------5---6-|-----------9----8---|
|-----------------|----------------|----------------|--------------------|
|--------7------7-|------7-------7-|------7-------7-|------10-------10---|
|----0------0-----|--0-------0-----|--0-------0-----|--8--------8--------|
|-----------------|----------------|----------------|--------------------|

2 TIMES
|-----------------|----------------|----------------|--------------- ----|
|-----------5---6-|----------6---5-|----------5---6-|-----------9----8---|
|-----------------|----------------|----------------|--------------------|
|--------7------7-|------7-------7-|------7-------7-|------10-------10---|
|----0------0-----|--0-------0-----|--0-------0-----|--8--------8--------|
|-----------------|----------------|----------------|--------------------|
|                                                                        |
|                                                                        |
|----------------------------------|----------------|--------------------|
|----------------------------------|----------------|--------------------|
|-----------------2----------------|---------2------|----5----4----2-----|
|-----------------2----------------|--3------2------|----5----4----2-----|
|-----------------0----------------|--3------0------|----3----2----0-----|
|----------------------------------|--1-------------|--------------------|

4 TIMES
|------------------------------------------------------------------------|
|------------------------------------------------------------------------|
|------------------------------------------------------------------------|
|---------2------------------------2-------------------------------------|
|---------2-----------------7-6-7--2-----------------7-3-/-10--7---------|
|---------0--0000--0000--00--------0--0000--0000--00---------------------|
           pm..............         pm..............

8 TIMES
|-----------------|----------------|----------------|--------------- ----|
|-----------5---6-|----------6---5-|----------5---6-|-----------9----8---|
|-----------------|----------------|----------------|--------------------|
|--------7------7-|------7-------7-|------7-------7-|------10-------10---|
|----0------0-----|--0-------0-----|--0-------0-----|--8--------8--------|
|-----------------|----------------|----------------|--------------------|
|                                                                        |
|                                                                        |
|----------------------------------|----------------|--------------------|
|----------------------------------|----------------|--------------------|
|-----------------2----------------|---------2------|----5----4----2-----|
|-----------------2----------------|--3------2------|----5----4----2-----|
|-----------------0----------------|--3------0------|----3----2----0-----|
|----------------------------------|--1-------------|--------------------|
[ Tab from: http://www.guitartabs.cc/tabs/s/susperia/bitter_man_tab.html ]
4 TIMES
|------------------------------------------------------------------------|
|------------------------------------------------------------------------|
|------------------------------------------------------------------------|
|---------2------------------------2-------------------------------------|
|---------2-----------------7-6-7--2-----------------7-3-/-10--7---------|
|---------0--0000--0000--00--------0--0000--0000--00---------------------|

CORO
|---------------------------------------------------------------------------5---
|----------------------------------------------------------------------------5--
|-----------------------------------------------------------------------------5-
|7-7-----10-9-------5-7-7-----10-12-------5-7-7-----10-9-------5-3-5-----8-7---7
|7-7-----10-9-------5-7-7-----10-12-------5-7-7-----10-9-------5-5-5-----8-7----
|5-5-0-0-8--7-0-0-0-3-5-5-0-0-8--10-0-0-0-3-5-5-0-0-8--7-0-0-0-3-3-3-0-0-6-5----
    .....     .....      .....     .......     .....    .......     .....

|---------------------------------------------------------------------------0---
|----------------------------------------------------------------------------0--
|-----------------------------------------------------------------------------0-
|7-7-----10-9-------5-7-7-----10-12-------5-7-7-----10-9-------5-3-3-3-3--2----2
|7-7-----10-9-------5-7-7-----10-12-------5-7-7-----10-9-------5-3-3-3-3--2-----
|5-5-0-0-8--7-0-0-0-3-5-5-0-0-8--10-0-0-0-3-5-5-0-0-8--7-0-0-0-3-1-1-1-1--0-----
    .....     .....      .....     .......     .....    .......

10 TIMES
|-----------------|----------------|----------------|--------------- ----|
|-----------5---6-|----------6---5-|----------5---6-|-----------9----8---|
|-----------------|----------------|----------------|--------------------|
|--------7------7-|------7-------7-|------7-------7-|------10-------10---|
|----0------0-----|--0-------0-----|--0-------0-----|--8--------8--------|
|-----------------|----------------|----------------|--------------------|
|                                                                        |
|                                                                        |
|----------------------------------|----------------|--------------------|
|----------------------------------|----------------|--------------------|
|-----------------2----------------|---------2------|----5----4----2-----|
|-----------------2----------------|--3------2------|----5----4----2-----|
|-----------------0----------------|--3------0------|----3----2----0-----|
|----------------------------------|--1-------------|--------------------|

CORO
|---------------------------------------------------------------------------5---
|----------------------------------------------------------------------------5--
|-----------------------------------------------------------------------------5-
|7-7-----10-9-------5-7-7-----10-12-------5-7-7-----10-9-------5-3-5-----8-7---7
|7-7-----10-9-------5-7-7-----10-12-------5-7-7-----10-9-------5-5-5-----8-7----
|5-5-0-0-8--7-0-0-0-3-5-5-0-0-8--10-0-0-0-3-5-5-0-0-8--7-0-0-0-3-3-3-0-0-6-5----
    .....     .....      .....     .......     .....    .......     .....

|---------------------------------------------------------------------------0---
|----------------------------------------------------------------------------0--
|-----------------------------------------------------------------------------0-
|7-7-----10-9-------5-7-7-----10-12-------5-7-7-----10-9-------5-3-3-3-3--2----2
|7-7-----10-9-------5-7-7-----10-12-------5-7-7-----10-9-------5-3-3-3-3--2-----
|5-5-0-0-8--7-0-0-0-3-5-5-0-0-8--10-0-0-0-3-5-5-0-0-8--7-0-0-0-3-1-1-1-1--0-----
    .....     .....      .....     .......     .....    .......

7 TIMES
|------------------------------------------------------------------------|
|------------------------------------------------------------------------|
|------------------------------------------------------------------------|
|---------2------------------------2-------------------------------------|
|---------2-----------------7-6-7--2-----------------7-3-/-10--7---------|
|---------0--0000--0000--00--------0--0000--0000--00---------------------|


|-----------------|----------------|----------------|--------------- ------|
|-----------5---6-|----------6---5-|----------5---6-|----------------------|
|-----------------|----------------|----------------|----------------------|
|--------7------7-|------7-------7-|------7-------7-|------10---8--7-------|
|----0------0-----|--0-------0-----|--0-------0-----|--8--------8--7-------|
|-----------------|----------------|----------------|-----------6--5-------|


END
Comments