Survivor - Eye Of The Tiger Chords & Tabs

 

Eye Of The Tiger Chords & Tabs

Survivor Chords & Tabs

Version: 8 Type: Tab 10 ratings
1 star 2 stars 3 stars 4 stars 5 stars
comments

Eye Of The Tiger Tab

   
Survivor - Eye of the Tiger

By charlie turner


           Intro

Pulm mute 

E||------------------------||
B||-333-333-333-333-333-etc||
G||------------------------||
D||------------------------||
A||------------------------||
E||------------------------||


Main Riff


E|--------------|-----------|-----------||
B|--------------|-----------|--------1--||
G|--5--5--3--5--|--5--3--5--|--5--0--1--||   4 times
D|--5--5--3--5--|--5--3--5--|--5--1--1--||
A|--3--3-----3--|--3-----3--|--3--------||
E|--------------|-----------|-----------||


Verse 

     (Cm)       (Ab)      (Bb)      (Cm)
E||------3--|------4--|------8--|------3--||
B||----4-3--|------4--|------8--|----4-3--||
G||--5---3--|----5-4--|----7-8--|--5---3--||    4 times
D||--5---3--|--6---4--|--8---8--|--5---3--||
A||------3--|--6---4--|--8---8--|------3--||
E||------3--|------4--|------8--|------3--||


Chorus

    (Fm)     (Eb)       (Bb)
E||--------|--6--8--|--6--------||
B||--------|--6--8--|--6--------||
G||--------|--6--8--|--6--7-----||    3 tirmes 
D||-----3--|--6--8--|--6-----8--||
A||-----3--|--6-----|--6-----8--||
E||--1-----|--xxxx--|--6--------||



E||-----------------------||
B||--------------------1--||
G||-----------0-----0--1--||
D||--3--1--3-----3-----1--||
A||-----------------------||
E||-----------------------||


Verse 
[ Tab from: http://www.guitartabs.cc/tabs/s/survivor/eye_of_the_tiger_tab_ver_8.html ]
     (Cm)       (Ab)      (Bb)      (Cm)
E||------3--|------4--|------8--|------3--||
B||----4-3--|------4--|------8--|----4-3--||
G||--5---3--|----5-4--|----7-8--|--5---3--||    2 times
D||--5---3--|--6---4--|--8---8--|--5---3--||
A||------3--|--6---4--|--8---8--|------3--||
E||------3--|------4--|------8--|------3--||


Chorus

    (Fm)     (Eb)       (Bb)
E||--------|--6--8--|--6--------||
B||--------|--6--8--|--6--------||
G||--------|--6--8--|--6--7-----||    3 tirmes 
D||-----3--|--6--8--|--6-----8--||
A||-----3--|--6-----|--6-----8--||
E||--1-----|--xxxx--|--6--------||


E||-----------------------||
B||--------------------1--||
G||-----------0-----0--1--||
D||--3--1--3-----3-----1--||
A||-----------------------||
E||-----------------------||


Verse

     (Cm)       (Ab)      (Bb)      (Cm)
E||------3--|------4--|------8--|------3--||
B||----4-3--|------4--|------8--|----4-3--||
G||--5---3--|----5-4--|----7-8--|--5---3--||    2 times
D||--5---3--|--6---4--|--8---8--|--5---3--||
A||------3--|--6---4--|--8---8--|------3--||
E||------3--|------4--|------8--|------3--||


Chorus

    (Fm)     (Eb)       (Bb)
E||--------|--6--8--|--6--------||
B||--------|--6--8--|--6--------||
G||--------|--6--8--|--6--7-----||    3 tirmes 
D||-----3--|--6--8--|--6-----8--||
A||-----3--|--6-----|--6-----8--||
E||--1-----|--xxxx--|--6--------||


E||-----------------------||
B||--------------------1--||
G||-----------0-----0--1--||
D||--3--1--3-----3-----1--||
A||-----------------------||
E||-----------------------||


main riff


E|--------------|-----------|-----------||
B|--------------|-----------|--------1--||
G|--5--5--3--5--|--5--3--5--|--5--0--1--||   4 times
D|--5--5--3--5--|--5--3--5--|--5--1--1--||
A|--3--3-----3--|--3-----3--|--3--------||
E|--------------|-----------|-----------||

Comments