Survivor - Eye Of The Tiger Chords & Tabs

 

Eye Of The Tiger Chords & Tabs

Survivor Chords & Tabs

Version: 6 Type: Tab 0 ratings
1 star 2 stars 3 stars 4 stars 5 stars
comments

Eye Of The Tiger Tab

I think this is right...just the beginning of it.
[ Tab from: http://www.guitartabs.cc/tabs/s/survivor/eye_of_the_tiger_tab_ver_6.html ]
--------------------------------------
--------------------------------------
--------------------------------------
--5----------------5-3-5--5-3-5--5----
--3----33333333----3-1-3--3-1-3--3-5-6
-----------------------------------3-4

-----------------------------
----3-3-3--3-3-3-------------
----4-3-4--4-3-4--5-3-1-1-3-5
--5---------------5-3-1-1-3-5
--3--------------------------  after this put hand over strings strum and start again

ITS THE EYE OF THE TIGER!
Comments