Survivor - Eye Of The Tiger Chords & Tabs

 

Eye Of The Tiger Chords & Tabs

Survivor Chords & Tabs

Version: 2 Type: Tab 0 ratings
1 star 2 stars 3 stars 4 stars 5 stars
comments

Eye Of The Tiger Tab

   
TITLE : Eye Of The Tiger
ARTIST: Survivor
TAB   : Bjoern Elsner(Bjoern.elsner@gmx.de)
I was too lazy to write down the 2 following verses.Just listen to the
record,you might get them easy.Have Fun, Björn

INTRO:

e--3---------3\1/3------
b--4---------4\2/4------
g--5---------5\3/5------
d--5---------5\3/5------2 Times 
a--3-3-3-3-3-3---3------
e-----------------------
			then
e--3---------3\1------
b--4---------4\2------
g--5---------5\3--1---
d--5---------5\3--2---
a--3-3-3-3-3-3----2---
e---------------------

VERSE 1 :
[Cm]        [A]
Rising up  back on the street
[Bb]                  [Cm]
did my time took my chances
                             [A]    
When the distance , now I'm back on my feet
          [Bb]                  [Cm] 
just a man and his will to survive

[ Tab from: http://www.guitartabs.cc/tabs/s/survivor/eye_of_the_tiger_tab_ver_2.html ]
VERSE 2 :
So many times it happens to fast
You trade your passion for glory
Don't lose your grip on the dreams of the past
You must fight just to keep them alive

CHORUS : 
[Bb] [Cm] [Fm]
It's the  Eye Of The Tiger
          [E]                [Bb] 	
It's the thrill of the fight
[Cm]  [Fm]                      [Cm][Bb]
rising up to the challenge of our rival
[Cm]    [Fm]                            [E]              [Bb]
And the last known survivor stalks his prey in the night
    [Cm] [Fm]        [E]
and he's watching us all with the 
[A]          [Cm]
Eye  of the Tiger

-------------------------------
CHORDS
 [Cm]  [A]  [Bb] [Fm]  [E]
e---3----0----1----2----0----
b---4----2----3----2----0----
g---5----2----3----2----1----
d---5----2----3----4----2----
a---3----0----1----4----2----
e--------0----1----2----0----
Comments