Survivor - Eye Of The Tiger Chords & Tabs

 

Survivor Chords & Tabs

Version: 1 Type: Tab 4 ratings
1 star 2 stars 3 stars 4 stars 5 stars
comments

Eye Of The Tiger Tab

   
this isnt 100% correct but its the first tab on here so it will give you something to work with

intro
* =may be bent in another bar
guitar 1 (back up) plays . . .

E-----------------------|
B-----------------------|
G-----------------------| THIS IS PLAYED REPEADEDLY UNTIL
D-----------------------| THE VERSE STARTS
A-5-5-5-5-5-5-5-5-5-5-5-|
E-----------------------|

guitar 2 (lead) plays . . . 

E---------------------------------------------------------------------|
B---------------------------------------------------------------------|
G-7-----------------7-5-7*----------------7-5-7*----------------7-5-3-|
D-7-----------------7-5-7-----------------7-5-7-----------------7-5-3-| x2
A-5-(5-5-5-5-5-5-5)-5-3-5-(5-5-5-5-5-5-5)-5-3-5-(5-5-5-5-5-5-5)-5-3-1-|
E---------------------------------------------------------------------|

then play the same as above but bend the notes that have a * by them

the verse is a keyboard part it as just middle D played steadily to the words


pre chorus
[ Tab from: http://www.guitartabs.cc/tabs/s/survivor/eye_of_the_tiger_tab.html ]
guitar 1
E-0-2--3-3-3-3-2-0-----0-2-0--0-2-3-3-3-3-2-0---2-0-0-|
B------------------3-3------------------------3-------|
G-----------------------------------------------------|
D-----------------------------------------------------|
A-----------------------------------------------------|
E-----------------------------------------------------|

E-0-2--3-3-3-3-2-0-----0-2-0---0-2-3-2-3-5-3-7-7------|
B------------------3-3--------------------------------|
G-----------------------------------------------------|
D-----------------------------------------------------|
A-----------------------------------------------------|
E-----------------------------------------------------|

let the last note ring


guitar 2

E------------------------|
B------------------------|
G-9--7--5--5--7--9--7--5-|
D-9--7--5--5--7--9--7--5-|
A-7--5--3--3--5--7--5--3-|
E-7--5--3--3--5--7--5--3-|
 then play

E------------------------------|
B------------------------------|
G-5--7--9--7--9--11--9--13--13-|
D-5--7--9--7--9--11--9--13--13-|
A-3--5--7--5--7--9---7--11--11-|
E-3--5--7--5--7--9---7--11--11-|

THATS IT FOR THE WHOLE SONG 

                 BYE
Comments