Survivor - Eye Of The Tiger Chords & Tabs

 

Eye Of The Tiger Chords & Tabs

Survivor Chords & Tabs

Version: 1 Type: Bass Tab 1 rating
1 star 2 stars 3 stars 4 stars 5 stars
comments

Eye Of The Tiger Bass Tab

    SURVIVOR - "Eye of the Tiger" - Bass Tab
    
    Intro:
    	  (x4)	
    |-----------|-------------|-------------|-------------|---------|
    |*---------*|-------------|-------------|-------------|---------|
    |*-r-r-r-r-*|-3---3-1---3-|-----3-1---3-|-----3-------|---------|
    |-----------|-------------|-------------|-------3---4-|---------|
       1 2 3 4    1 2 3 a 4 &   1 2 3 a 4 &   1 2 3 a 4 &   1 2 3 4
    
    |-------------|-------------|-------------|---------|
    |-------------|-------------|-------------|---------|
    |-3---3-1---3-|-------3---1-|-3---3-------|---------|
    |-------------|-------------|-------3---4-|---------|
      1 2 3 a 4 &   1 2 3 & 4 e   1 2 3 a 4 &   1 2 3 4  
    				     
    Riff 1:
    |---------|---------|-----------|---------|
    |---------|---------|-----------|---------|
    |-3-3-3-3-|-3-3-3-3-|-3-3-3-----|---------|
    |---------|---------|-------3-4-|---4-4-4-|
      1 2 3 4   1 2 3 4   1 2 3 4 &   1 2 3 4
    
    Riff 2:
    |---------|---------------|
    |---------|---------------|
    |-3-3-3-3-|-3-3-3---------|
    |---------|-------3-6-3-6-|
      1 2 3 4   1 2 3 4 e & a
    
    Riff 3:
    |---------|---------|---------|---------------|
    |---------|---------|---------|---------------|
    |-3-3-3-3-|-3-3-3-3-|-3-3-3-3-|-3-3-3---------|
    |---------|---------|---------|-------3-6-3-6-|
      1 2 3 4   1 2 3 4   1 2 3 4   1 2 3 4 e & a
    
    Riff 4:
    |---------|---------|---------|---------------|
    |---------|---------|---------|---------------|
    |-3-3-3-3-|---------|---------|-3-3-3---------|
    |---------|-4-4-4-4-|-6-6-6-6-|-------3-6-3-6-|
      1 2 3 4   1 2 3 4   1 2 3 4   1 2 3 4 e & a
    
    |---------|---------|---------|-------------|
    |---------|---------|---------|-------------|
    |-3-3-3-3-|---------|---------|-3-3-3-1---3-|
    |---------|-4-4-4-4-|-6-6-6-6-|-------------|
      1 2 3 4   1 2 3 4   1 2 3 4   1 2 3 & 4 &
    
    Chorus:
    |---------|---------|---------|---------|---------|---------|
    |---------|---------|---------|---------|---------|---------|
    |---------|-----1-1-|---------|-3-1---1-|---------|-----1-1-|
    |-1-1-1-1-|-3-3-----|-1-1-1-1-|---------|-1-1-1-1-|-3-3-----|
      1 2 3 4   1 2 3 4   1 2 3 4   1 2 3 4   1 2 3 4   1 2 3 4
    
    |-----------------|--------|
    |-3-1---3-5-3---5-|-6------|
    |-----------------|--------|
    |-----------------|-----4--|
      1 e 2 & 3 e 4 &   1 2 3 4
    
    Song Structure:
    Intro
    Riff 1(x2)
    Verse 1: Riff 2
             Riff 3(x2)
    	   Riff 4	
    Chorus
    Verse 2: Riff 2
             Riff 3(x2)
    Chorus
    Verse 3: Riff 2
    	   Riff 3(x2)
    Chorus
    End: Riff 2
         Riff 3(fade-out)
    
    By: Johari Taylor
    Email: viking@powerup.com.au
    



[ Tab from: http://www.guitartabs.cc/tabs/s/survivor/eye_of_the_tiger_btab.html ]
Comments