Survivor - Caught In The Game Chords & Tabs

 

Caught In The Game Chords & Tabs

Survivor Chords & Tabs

Version: 1 Type: Tab

Caught In The Game Tab

----------------------------------------------------------------------------
		      CAUGHT IN THE GAME - SURVIVOR
----------------------------------------------------------------------------

Tabbed by: Bjovi400

Tuning:Standard
[ Tab from: http://www.guitartabs.cc/tabs/s/survivor/caught_in_the_game_tab.html ]
e|--------------------------------------------------------------------------|
B|--------------------------------------------------------------------------|
G|--------------------------------------------9-----------------------------|
D|---------------9--11---9--11------9--11-----9--9---7--7---6---2--2--4--4--|
A|---------------9--11---9--11------9--11----7---9---7--7---6---2--2--4--4--|
E|--17----------7---9---7---9------7---9--------7---5--5---4---0--0--2--2---|

     ^start at 17 and slide down to 7

Well, there is the entire intro, do this 4 times.Just listen to the song for timing.