Surfaris - Wipe Out Chords & Tabs

 

Wipe Out Chords & Tabs

Surfaris Chords & Tabs

Version: 4 Type: Tab 0 ratings
1 star 2 stars 3 stars 4 stars 5 stars
comments

Wipe Out Tab

http://thesurfaris.com

This is an easy TAB of this widely known song. It is such a blast to play! 
The great thing about this TAB is that it can be played on ANY string with
the same frets. Aint that somethin'?!? E-mail me at KittyKQuail@aol.com if 
you have any questions or comments. Have fun and God Bless!!!

E-0--3--4--5-5-5-3-0-0--3--4--5-5-5-3-0----------------------------------
B------------------------------------------------------------------------
G------------------------------------------------------------------------
D------------------------------------------------------------------------
A------------------------------------------------------------------------
E------------------------------------------------------------------------

E-0--3--4--5-5-5-3-0-0--3--4--5-5-5-3-0----------------------------------
B------------------------------------------------------------------------
G------------------------------------------------------------------------
D------------------------------------------------------------------------
A------------------------------------------------------------------------
E------------------------------------------------------------------------

E-7--9--10-10-10-8--5--5-------------------------------------------------
B------------------------------------------------------------------------
G------------------------------------------------------------------------
D------------------------------------------------------------------------
A------------------------------------------------------------------------
E------------------------------------------------------------------------

E-0--3--4--5-5-5-3-0-0--3--4--5-5-5-3-0----------------------------------
B------------------------------------------------------------------------
G------------------------------------------------------------------------
D------------------------------------------------------------------------
A------------------------------------------------------------------------
E------------------------------------------------------------------------
[ Tab from: http://www.guitartabs.cc/tabs/s/surfaris/wipe_out_tab_ver_4.html ]
E-7-9-12-12-12-10-7-7-12-10-10-10-8-5------------------------------------
B------------------------------------------------------------------------
G------------------------------------------------------------------------
D------------------------------------------------------------------------
A------------------------------------------------------------------------
E------------------------------------------------------------------------

E-0--3--4--5-5-5-3-0-0--3--4--0-0-0-0-0-0-5------------------------------
B------------------------------------------------------------------------
G------------------------------------------------------------------------
D------------------------------------------------------------------------
A------------------------------------------------------------------------
E------------------------------------------------------------------------

E-(Drum Fill)-5--(Drum Fill)-5--(Drum Fill)-5--(Drum Fill)---------------
B------------------------------------------------------------------------
G------------------------------------------------------------------------
D------------------------------------------------------------------------
A------------------------------------------------------------------------
E------------------------------------------------------------------------

E-7-9-12-12-12-10-7-7-12-10-10-10-8-5------------------------------------
B------------------------------------------------------------------------
G------------------------------------------------------------------------
D------------------------------------------------------------------------
A------------------------------------------------------------------------
E------------------------------------------------------------------------


E-0--3--4--5-5-5-3-0-0--3--4--5------------------------------------------
B------------------------------------------------------------------------
G------------------------------------------------------------------------
D------------------------------------------------------------------------
A------------------------------------------------------------------------
E------------------------------------------------------------------------

	Repeat As Desired
Comments