Supertramp - Give A Little Bit Chords & Tabs

 

Give A Little Bit Chords & Tabs

Supertramp Chords & Tabs

Version: 2 Type: Tab 0 ratings
1 star 2 stars 3 stars 4 stars 5 stars
comments

Give A Little Bit Tab

   
#----------------------------------PLEASE NOTE---------------------------------#
#This file is the author's own work and represents their interpretation of the #
#song. You may only use this file for private study, scholarship, or research. #
#------------------------------------------------------------------------------#

SUPERTRAMP - "Give A Little Bit" (1977) - Chords w/Tab & Lyrics 



INTRO:
 

 A7
|0------||
|2------||
|0------||
|2------||
|0------||
|X------||


VERSE 1: (Play 2x)


  D    A7 D     G A     G A     G
 |2------|------3|-------|0------||
 |3------|------3|-------|2------||
 |2------|------0|-------|2------|| 
 |0------|------0|-------|2------||
 |x------|------2|-------|0------||
 |x------|------3|-------|x------||



  Bm      Esus4   E G       D2   A7 D2   A7 
 |2------||0------0|-------|0-----0|------0|
 |3------||0------0|-------|3-----2|------5|
 |4------||2------1|-------|0-----0|------0|    
 |4------||2------2|-------|4-----2|------5|
 |2------||2------2|-------|0-----0|------0|
 |x------||0------0|-------|x-----x|------x|





VERSE 2: (Play 2x) 

 
  D    A7 D     G A     G A     G
 |2------|------3|-------|0------||
 |3------|------3|-------|2------||
 |2------|------0|-------|2------|| 
 |0------|------0|-------|2------||
 |x------|------2|-------|0------||
 |x------|------3|-------|x------||



[ Tab from: http://www.guitartabs.cc/tabs/s/supertramp/give_a_little_bit_tab_ver_2.html ]
  Bm      Esus4   E G       D2   A7 D2   A7  
 |2------||0------0|-------|0-----0|------0|
 |3------||0------0|-------|3-----2|------5|
 |4------||2------1|-------|0-----0|------0|    
 |4------||2------2|-------|4-----2|------5|
 |2------||2------2|-------|0-----0|------0|
 |x------||0------0|-------|x-----x|------x|





VERSE 3 (Play 2x):


  D    A7 D     G A     G A     G
 |2------|------3|-------|0------||
 |3------|------3|-------|2------||
 |2------|------0|-------|2------|| 
 |0------|------0|-------|2------||
 |x------|------2|-------|0------||
 |x------|------3|-------|x------||


 'Give a little bit/Give a little bit of your love to me


  Bm      Esus4   E G       D2   A7 D2   A7   
 |2------||0------0|-------|0-----0|------0|
 |3------||0------0|-------|3-----2|------5|
 |4------||2------1|-------|0-----0|------0|    
 |4------||2------2|-------|4-----2|------5|
 |2------||2------2|-------|0-----0|------0|
 |x------||0------0|-------|x-----x|------x|




  Song Ends
-------------------------------------------------------------------------------



STRUM PATTERN:

 D       A7     D   D      G      A
|ddd----dud----dud|ddd----dud----dud|---etc.---|                                    
|-----------------|-----------------|----------|
|-----------------|-----------------|----------|
|-----------------|-----------------|----------|
|-----------------|-----------------|----------|
|-----------------|-----------------|----------|



This sounds exactly like the song.  My guitar teacher wrote down the chords for me just 
by listening to the song on my CD.  On the first chord in the song, the A7, you'll 
have to figure out how it's strummed yourself.  He told me that the third chord 
played in each measure doesn't get accounted for when reading the music.  I don't 
understand this myself.  Just strum the chord the same as the previous one or just listen to the song 
to see how it goes.  



Submitted by: Michael Hatch
Email: watching_wheels@hotmail.com
Date: 6/01/01
Comments