Supertramp - Bloody Well Right Chords & Tabs

 

Bloody Well Right Chords & Tabs

Supertramp Chords & Tabs

Version: 1 Type: Tab 0 ratings
1 star 2 stars 3 stars 4 stars 5 stars
comments

Bloody Well Right Tab

   
#----------------------------------PLEASE NOTE---------------------------------#
#This file is the author's own work and represents their interpretation of the #
#song. You may only use this file for private study, scholarship, or research. #
#------------------------------------------------------------------------------#

Bloody Well Right
Supertramp
From the Album-"Crime Of The Century"
1974
Written by Rick Davies/Roger Hodgson
Tabbed by Ray Scheidler



Electric Piano Ad lib Solo:

Ab Bb  Ab Bb  Ab Bb  Ab Bb  x 4





E--------------------1--------------------------
B--------------2--3-----2-----------------------
G--------3--5--------------5--3-----------------
D--3--5--------------------------5--------------
A-----------------------------------------------
E-----------------------------------------------



  Bb    Ab             Bb    Ab        Bb
E-----------------------------------------------
B--------------------------3--3-----4---3--4--3-
G-----------------3--5--3--------5--------------
D--------3--3--5--------------------------------
A--3--5-----------------------------------------
E-----------------------------------------------


              Ab                Bb    Ab
E-----------------------------------------------
B--------3--3--3--------------------------------
G--5--3-----------5--------3--5--3--------------
D--------------------3--5-----------3--5-3--5-3-
A-----------------------------------------------
E-----------------------------------------------


            Bb       Ab                Bb
E-----------------------------------------------
B-----------------------------------------------
G------------------------3--------3-------------
D--5-3--5-3-5-3-5-3---5-----3--5-----5--3-------
A------------------------------------------5----
E-----------------------------------------------


                 Bb                Ab
E-----------------------------------------------
B-----------------------------------------------
G-----------------------------------------------
D-----------------------------------6--6--5--6--
A--5--5--5--3-----5--5--3-----------------------
E--------------6-----------6--3--1--------------

[ Tab from: http://www.guitartabs.cc/tabs/s/supertramp/bloody_well_right_tab.html ]
             Bb    Ab                Bb
E-----------------------------------------------
B-----------------------------------------------
G--3-------------------------3------------------
D-----6---5---6-----6--5--6-----6--5--6-----6---
A----------------5-----------------------1------
E-----------------------------------------------


  Ab             Bb          Ab          
E--------------------------3-------------6--8---
B-----------------3--3--6-----4---6---8---------
G-----------3--5--------------------------------
D--6--5--6--------------------------------------
A-----------------------------------------------
E-----------------------------------------------


   Bb                         Riff 1: Gm
E--(6)-------------6-------------------3----3---
B-------------6------------------------3----3---
G---------7----------------------------3----3---
D-----------------------------------------------
A-----------------------------------------------
E-----------------------------------------------


         Bb           C         Gm     Bb    F
E---------6-----------8----------3-3----6----1--
B---------6-----------8----------3-3----6----1--
G---------7-----------9----------3-3----7----2--
D-----------------------------------------------
A-----------------------------------------------
E-----------------------------------------------
 So you think your schooling's phony



   A Ab Gm                Bb  C  Gm
E--5--4-----------------------------------------
B--5--4-----------------------------------------
G--6--5--------------------3--5-----------------
D--------5--5------5--3-----------5--5-----5--3-
A--------------5--------5---------------5-------
E-----------------------------------------------


      Bb  F  Gm                      Bb   C
E-----------------------------------------------
B-----------------------------------------------
G------3----------------------------------------
D---------3---5---5-------5---3-------3---5-----
A--5------------------5-----------5-------------
E-----------------------------------------------


  Gm                      Bb   F
E-----------------------------------------------
B-----------------------------------------------
G--------------------------3--------------------
D--5---5-------5---3-----------3----------------
A----------5-----------5------------------------
E-----------------------------------------------



Comments