Supertones - Little Man Chords & Tabs

 

Little Man Chords & Tabs

Supertones Chords & Tabs

Version: 5 Type: Bass Tab 0 ratings
1 star 2 stars 3 stars 4 stars 5 stars
comments

Little Man Bass Tab

SUPERTONES
LITTLE MAN

STANDARD TUNING

     INTRO
G----------------------------------------------|
D----------------------------------------------|
A----0--787---0--787----787---77--55--33--22-0-|
E-----------8--------87-----8------------------|


     With other music
G-------------------------------------------------------------------------------------------|
D-------------------------------------------------------------------------------------------|
A----0--787---0--787----787----787----0--787---0--787----787---77--55--33--22-0--0--787---0-|
E-----------8--------87-----87-----88--------8--------87-----8--------------------------8---|


G----------------------------------------------------------------------|
D----------------------------------------------------------------------|
A--787----787----787-----0--787---0--787----0--787---77--55--33--2-----|
E------87-----87------88--------8--------87--------8-------------------|

     CHANGES INTO (Make the 3 on the E (below) string fast after the 2 on the A (above) string)
G-----------------------------------------------------------------------------------------------|
D-----------------------------------------------------------------------------------------------|
A------------------------3-3p2-2-2--3-3p2-2--------------------------3-3p2-2-2--33-22-----------|
E--3--3h5-5-5--3-3h5-5-5--------------------0-3-0-3h5-5-5--3-3h5-5-5------------------55-33-55--|


   after oi's
G------------------|
D------------------|
A------------------|
E-----0--0---------|

          PICK IT UP !!!
     Verse
G-----------------------------------------------------------------------------| 2X
D-----------------------0-7-5-7--0-7-5-7--------------------------------------|
A-----0-7-5-7--0-7-5-7--------------------0-7-5-7--0-7-5-7--------------------|
E-----------------------------------------------------------0-7-5-7--0-7-5-7--|
[ Tab from: http://www.guitartabs.cc/tabs/s/supertones/little_man_btab_ver_5.html ]
   Between verses
G--------------------------------|  2x
D--------------------------------|
A---0---3-3h5-5---0--3-3h5-9-----|
E---------------3------------9---|

     Verse 2
G-----------------------------------------------------------------------------| 2X
D-----------------------0-7-5-7--0-7-5-7--------------------------------------|
A-----0-7-5-7--0-7-5-7--------------------0-7-5-7--0-7-5-7--------------------|
E-----------------------------------------------------------0-7-5-7--0-7-5-7--|

  Chorus
G-------------------------| 2x
D-------------------------|
A----------------3-3--5-5-|
E--------5-5--3-3---------|
     I know thats not what the bass does in the song but it sounds better my way(chorus)

  Verse 3
G-----------------------------------------------------------------------------| 2X
D-----------------------0-7-5-7--0-7-5-7--------------------------------------|
A-----0-7-5-7--0-7-5-7--------------------0-7-5-7--0-7-5-7--------------------|
E-----------------------------------------------------------0-7-5-7--0-7-5-7--|


Chorus
G-------------------------| 4x
D-------------------------|
A----------------3-3--5-5-|
E--------5-5--3-3---------|


   Bridge
G------------------------------ 2x  G--------------| 8x
D------------------------------     D--------------|
A-----55-555---------33-333----     A--------------|
E------------33-555--------375-     E-----0h3-5----|


G---------------------------------------| 2x
D---------------------------------------|
A--------00-000--3p-----00-000-3p0-5-55-|
E------------------3-33-----------------|
                          (that pull off is kinda silent but it works)
G--------------| 8x
D--------------|
A--------------|
E-----0h3-5----|

G------------------------------------------| 4x
D------------------------------------------|
A-------------------------3-3-333--5-5-555-|
E--------5-5-555--3-3-333------------------|

End it on the E string ---3-5--

   Thats it hope you enjoy
Comments