Supertones - Little Man Chords & Tabs

 

Little Man Chords & Tabs

Supertones Chords & Tabs

Version: 2 Type: Bass Tab 0 ratings
1 star 2 stars 3 stars 4 stars 5 stars
comments

Little Man Bass Tab

   
Title:  Little Man
Artist: The Supertones
Album:  Supertones Strike Back


Intro:
                                                2 X's
G |-----------------------------------------|--------------------------
D |--2-3-2---2-3-2---2-3-2-2-2-0-0----------|*2-3-2---2-3-2---2-3-2----
A |-0-----3-0-----3-2-----3-------3-3-2-2-0-|*-----3-0-----3-2-----3-2-
E |-----------------------------------------|--------------------------

G |------------------------------------------------|-------------------
D |-2-3-2---2-3-2---2-3-2---2-3-2-2-2-0-0---------*|-------------------
A |------3-0-----3-0-----3-2-----3-------3-3-2-2-0*|--0-0-0-0-0-0-0----
E |------------------------------------------------|-3-------3---------

G |-------------------------------------------------------------------|
D |------------------------------------------------2-2-0-0------------|
A |-3-3-2-2-2-3-3-2-2-2---0-0-0-0-0-0-0-3-3-2-2-2-2-------3-3-2-2-0---|
E |--------------------0-3-------3------------------------------------|
  Hold last note
  Drum break

E |-0-0-|

[ Tab from: http://www.guitartabs.cc/tabs/s/supertones/little_man_btab_ver_2.html ]
Verse:
 Play twice
G |---------------2-0-2-2-0-2-2-0-----------------4-2-4-4-4-2-----|
D |--2-0-2-2-0-2-0-----0---------2-0-2-0-2-2-0-2-2-----2-----4-2--|
A |-0-----0-------------------------0-----0-----------------------|
E |---------------------------------------------------------------|

1st Break:
G |----------------|
D |----------------| 4 X's
A |-0-0-0-0-3-(3)--|
E |--------------3-|

Play verse

Chorus:
G |-----------------------------------|
D |-----------------------------------| 2 X's
A |-0-0-0-------3-5-3-3-0-3-5-5-5-3-5-|
E |------4-3-3-3----------------------|

Play chorus twice

2nd Break:
G |-------------------------|
D |-------------------------| 2 X's
A |-5-5-5-5---0-5-5-5-5-2-0-|
E |--------3-3---------3----|

Play 1st break

Plat 2nd break

Chorus 2:
G |-------------------------------|
D |-------------------------------| 4 X's
A |-0-0-0-0-------3-3-3-3-5-5-5-5-|
E |--------3-3-3-3----------------|

End:
G |----|
D |----|
A |--0-|
E |-3--|

  This is pretty close, some times he adds a few notes. Listen to the
CD for the rythym.
Comments